Veil Of Maya - We Bow In Its Aura tab

Veil Of Maya
We Bow In Its Aura
The Common Mans Collapse

Written By Marc Okubo

This song is in Drop B Tuning.

B F# B E G# C#

I tried to transcribe this song by watching this video here:
http://www.youtube.com/watch?v=w8Mz1eBibqQ

The tab is probably inaccurate but it seemed high in demand.

0:00

|-----------------------------------------------------------||----------------------------------T-------T----------------||-----------------------------------------------------------||---------8p7--------------------------------------8h11-8h11||-0-----------8--------------------17p12p8------------------||-0-0h3h7--------0--0-000--12p8h12---------17p12p8----------|
|-------------------------------------------------------||--T----------T-----------------------------------------||-------------------------------------------------------||--19p11p8h11-19p11p8-11----8----8---3---3------------0-||--------------------------12---12---7---7----------5---||------------------------8----8----3---3----0-1-4-5-----|
|--------------------------------------------------||--------------------------------------------------||--------------------------------------------------||------8---8---7---7---4h5p4-----------5-7---5---4-||----------------------------6-5-3-5-6-----6---5---||--4/5---5---5---4---4-----------------------------|
0:18
|--------|----------------------------------------||--------|----------------------------------------||--7h8p7-|-5h7p5-----------5h7p5-----------5h7p5--||--------|-------5-------5-------5-------5--------||--------|---------6-3-6-----------6-3-6----------||--------|----------------------------------------|
0:22
|----------------------------------------||----------------------------------------||--7h8p7-----------7h8p7-----------7h8p7-||--------7-------7-------7-------7-------||----------9-5-9-----------9-5-9---------||----------------------------------------|
0:24
|-----------------------------------------------------------||-----------------------------------------------------------||--11h12p11----------------11h12p11----------------11h12p11-||-----------12----------12----------12----------12----------||--------------13-12-13----------------13-12-13-------------||-----------------------------------------------------------|
0:27
|-----------------------------------||--16------15---13---12~---12---13--||-----12-0----0----0-----0----0-----||-----------------------------------||-----------------------------------||-----------------------------------|
0:31
|-----------------------------------------------------------||-----------------------------------------------------------||-----------7---8---12/11---11---12----15/14---14---12--11--||-----------------------------------------------------------||--0-5-4----5---6---10/-9----9---10----13/12---12---10---9--||--0-5-4--0---0---0--------0---0----0--------0----0----0----|
|-------------------||-------------------||--6/7-7-7-7/8-8-8--||-------------------||--4/5-5-5-5/6-6-6--||-------------------|
0:38
|----------11h15p11------11h15T20p15p11-------||--------13--------13--13--------------13-----||------12------------12------------------12---||----13------------------------------------13-||--15-----------------------------------------||---------------------------------------------|
0:44
|-------------------------------------------||-------------------------------------------||-------------------------------------------||---------4h7p4------------5h8p5-----8h12p8-||-------------------------------------------||--111-111------111-111-111------111--------|
|-------------------------------------8h10p8--||---------------------------------------------||---------------------------------------------||------------------7h10p7---------------------||---------------------------------------------||--111-111-111-111--------111-111-111---------|
|----------------------------------------------14h15h17-----||-------------7h10p7-----8h11p8-----------------------------||-----------------------------------------------------------||-----------------------------------------------------------||-----------------------------------------------------------||--111-111-111-------111--------111-111-111-111---------111-|
1:01
|------|----------------------------------------14h15h17--||------|--------------------------------------------------||------|--------------------------------------------------||--13/-|--------------------------------------------------||------|-111-111--111-111-111--111--111-111-111-----------||------|-111-111--111-111-111--111--111-111-111-----------|
|--15h17h18----22-22-22-17-17-17----------||-----------------------------------------||---------------------------------14/17---||-----------------------------------------||-----------------------------------------||-----------------------------------------|
1:11
|-------------------------------------------||-------------------------------------------||-------------------------------------------||-------------------------------------------||--11-11---11-11-11---11---11-11-11-11---11-||--11-11---11-11-11---11---11-11-11-11---11-|
|-------------------------------------------||-------------------------------------------||-------------------------------------------||-------------------------------------------||--55-55---55-55-55---55---55-55-55-55---55-||--55-55---55-55-55---55---55-55-55-55---55-|
1:16
|----------------------------------15-17-15-----------------||--------------------------------15--------15---------------||--12-14-12--------12-14-15-14-15------------15-14-15-14-12-||----------12-10-12-----------------------------------------||-----------------------------------------------------------||-----------------------------------------------------------|
|----------||----------||--14-12---||-------12-||----------||----------|
|-----------------------------18-19-18----------------------||-----------------------16--16--------16--------------------||--15-16-15--------15-16--16------------16-15-16-15---------||----------16-13-16--------------------------------16-13-16-||-----------------------------------------------------------||-----------------------------------------------------------|
|---------||---------||--15-16--||---------||---------||---------|
1:35
|----------------------||----------------------||--12h14p12------12h14-||----------12--12------||------------13--------||----------------------|
1:37
|------------------------------------------------||------------------------------------------------||--14/15---11---14/15---11-------14/15--11-------||------------------------------------------------||--12/13----9---12/13----9-------12/13---9-------||---------0---0-------0----0-0-0-------0---0-0-0-|
1:59
|--------------------------------------------------||--------------------------------------------------||--------------------------------------------------||--------------------------------------------------||--5-55-5-8-8-4-1-11-1-3-5-55-5-8-8-3-1-11-1-0-0-0-||--5-55-5-8-8-3-1-11-1-3-5-55-5-8-8-3-1-11-1-0-0-0-|
|-----------------------------||-----------------------------||-----------------------------||---------------------------5-||--5-55-5-8-8-1-1-11-----3h5--||--5-55-5-8-8-1-1-11--3h5-----|
2:10
|-----------------------------------------------------||-----------------------------------------------------||--------7p5p3-5---3----------------------------------||---------------------4h5---5---------4h5---5---------||--5-55-5-----------------------/9/5~-----------/9/5~-||--5-55-5--------0---0----0---0-----------0---0-------|
2:16
|----------------------------------||----------------------------------||----------------------------------||----------------------------------||--6-666-6666666-666-66666-6666666-||----------------------------------|
|------------------------------||------------------------------||------------------------------||------------------------------||--111-11111-1111111-111-11111-||--111-11111-1111111-111-11111-|
2:22
|----------------------------------|--------||----------------------------------|--------||----------------------------------|--------||----------------------------------|--------||------5-----5---------5---------5-|--------||--0-1---0-1---0-0-0-1---0-0-0-1---|--0-0-0-|
2:36
|----------------------------------||----------------------------------||----------------------------------||----------------------------------||--00000-0000000-000-00000-0000000-||--00000-0000000-000-00000-0000000-|
|-----------------------------------||-----------------------------------||-----------------------------------||-----------------------------------||--000-00000-0000000-000-00000-0000-||--000-00000-0000000-000-00000-0000-|
2:51
|----------------------------------|--------||----------------------------------|--------||----------------------------------|--------||------5-----5---------5---------5-|--------||------5-----5---------5---------5-|--------||--0-1---0-1---0-0-0-1---0-0-0-1---|--0-0-0-|
2:58
|---------------------------------------------------||---------------------------------------------------||---------------------------------------------------||------5-----2-------10-------12-----7-----10-------||------7-----3-------12-------13-----8-----12-------||--0-0---0-0---0-000----0-000----0-0--0-0-----0-000-|
|-----------------------------||-----------------------------||-----------------------------||--5-------5-----5-----5------||--7-------7-----7-----7------||----0-000---0-0---0-0----000-|
3:12
|----------------------------------||----------------------------------||----------------------------------||----------------------------------||--00000-0000000-000-00000-0000000-||--00000-0000000-000-00000-0000000-|
|----------------------------------||----------------------------------||----------------------------------||----------------------------------||--000-00000-000000-000-00000-0000-||--000-00000-000000-000-00000-0000-|
|----------------------------------||----------------------------------||----------------------------------||----------------------------------||--000-000-00000-0000000-000-00000-||--000-000-00000-0000000-000-00000-|
|------------------------------------||------------------------------------||------------------------------------||------------------------------------||--00000000-000-00000-0000000-000-00-||--00000000-000-00000-0000000-000-00-|
Tap to rate this tab
 
# A B C D E F G H I J K L M N O P Q R S T U V W X Y Z