Veil Of Maya - The Higler tab

Veil of Maya - The Higler
Tabbed by: Anthony D (AlucardXIX)
Tuning: Drop B (like everything they do...)

I can't say this is 100% correct, this is just how I play it and it's one HELL of a song 
play.

Video of me playing it sloppy: http://www.youtube.com/watch?v=Wbwxvhs-_PE

Good luck!

Intro----------------------------------------------------|----------------------------------------------------|----------------------------------------------------|-9-6--------9-6--------8-5--------8-5---------------|------6----------6----------6----------6-7-6-5-6----|--6-6---9-6--6-6---9-6--5-5---8-5--5-5--------------|
----------------------------------------------------|----------------------------------------------------|----------------------------------------------------|-9-6--------9-6--------11-7---------11-7------------|------6----------6-----------7------------7---------|--6-6---9-6--6-6---9-6---7-7---11-7---7-7---11-7----|
------------------------------------------------------------|------------------------------------------------------------|------------------------------------------------------------|-13-9----------13-9-----------13-8----------13-8------------|-------11------------11-------------10------------10--------|---9-9----13-9---9-9----13-9----8-8----13-8---8-8----13-8---|
---------------------------------------------------------|---------------------------------------------------------|---------------------------------------------------------|-11-8---------11-8---------10-7---------10-7-------------|-------8------------8------------8------------8-9-8-7-8--|---8-8---11-8---8-8---11-8---7-7---10-7---7-7------------|
Trem picking----------------------------------------|----------------------------------------|---------5---6---10-8-6-8-5-6-----------|---8-7-8---8---8--------------7-3-------|----------------------------------------|-4--------------------------------------|
------------------------------------------|------------------------------------------|-1086-8-5-6---5-6-5---5-------------------|------------8-------8---8--787878-434343--|------------------------------------------|------------------------------------------|
Break-----------------8\9/8------------------|---------------6-------6-------6--------|-----------5\6-----------6\5/6----------|-----8-7-8------------------------------|----------------------------------------|-444------------------------------------|
BreakdownRepeat first 2 bars twice.----------------------------------------------------------------------|----------------------------------------------------------------------|----------------------------------------------------------------------|----------------------------------------------------------------------|----------------------------------------------------------------------|-444-444-444--444-444--444-444-444-444-444--444-444-444--444-444-444--|
----------------------------------------|----------------------------------------|----------------------------------------|----------------------------------------|----------------------------------------|-444--444--444-444-444-444-444--444-444-|
After second time, play this twice.--------------------------------------------------------------------------|--------------------------------------------------------------------------|--------------------------------------------------------------------------|-4-3----------------------------------------------------------------------|--------------------------------------------------------------------------|-----444-444-444--444-444--444-444-444-444-444--444-444-444--444-444-444--|
----------------------------------------|----------------------------------------|----------------------------------------|----------------------------------------|----------------------------------------|-444--444--444-444-444-444-444--444-444-|
Ridiculousness-----------------8\9/8------------------|---------------6-------6-------6--------|-----------5\6-----------6\5/6----------|-----8-7-8------------------------------|----------------------------------------|-444------------------------------------|
These next few riffs are not 100% I promise. Listen for repeats----------------------------------------|---------------6-----6------5-----------|-----------5-6--------6------5----------|-----8-7-8------------------------------|----------------------------------------|-444-------------444----444-------------|
----------------------8---8-9-------------------------6-----5----|---------------6-------6-6-6-6----------------6------6-----6-----|-----------5-6----------5-----------------5-6--------------------|-----8-7-8--------------------------8-7-8------------------------|-----------------------------------------------------------------|-444-------------444------------444--------------444---444-------|
-13----16--18----------------------------|---11-----------13-11--11--14--14--------|-----11--11--11------11--11--11--11------|-----------------------------------------|-----------------------------------------|-----------------------------------------|
----------------------------------------|---------------6-----6------5-----------|-----------5-6--------6------5----------|-----8-7-8------------------------------|----------------------------------------|-444-------------444----444-------------|
----------------------8---8-9-------------------------6-----5----|---------------6-------6-6-6-6----------------6------6-----6-----|-----------5-6----------5-----------------5-6--------------------|-----8-7-8--------------------------8-7-8------------------------|-----------------------------------------------------------------|-444-------------444------------444--------------444---444-------|
-13----16--18----------------------------|---11-----------13-11--11--14--14--------|-----11--11--11------11--11--11--11------|-----------------------------------------|-----------------------------------------|-----------------------------------------|
-------13----------13-------------------13----11-13-11-13-11-13----------------|-13----------13----------13--14---13----------------------------13--14---------|---11----11----11----11----11--11---11----11----------------------11--11-------|-----13----13----13----13-------------13----13---------------------------------|-------------------------------------------------------------------------------|-------------------------------------------------------------------------------|
-------13----------13-------------------|-13----------13----------13--14---------|---11----11----11----11----11--11-------|-----13----13----13----13---------------|----------------------------------------|----------------------------------------|
---------------------------------------|---------------------------------------|--10-11-10-----------------------------|-----------11-8--------10-11-10--------|-----------------9---8----------12-----|-------------------7-------------------|
----------------------------------------|----------------------------------------|----------------------------------------|-7--4--8-------4-8-7-4-8-------4-8------|-3--0--4--0-0--0-4-3-0-4--0-0--0-4------|-3--0--4--0-0--0-4-3-0-4--0-0--0-4------|
--------------------------------------------------------------|--------------------------------------------------------------|--10-11-10--------------------------10--8---------------------|-----------11-8---------10-11-10------8-----11-10-10----------|-----------------9---8------------12---6-6-------8--8---8-----|-------------------7----------------------------------7-------|
--------------------------------------------------------13------|---------------------------------------------11-10--10----10----|--10-11-10-------------------------10--8----------10--10--------|-----------11-8--------10-11-10------8--------------------------|-----------------9---8----------12----6-6-----------------------|-------------------7--------------------------------------------|
----------------------------------------|----------------------------------------|----------------------------------------|-7--4--8-------4-8-7-4-8-------4-8------|-3--0--4--0-0--0-4-3-0-4--0-0--0-4------|-3--0--4--0-0--0-4-3-0-4--0-0--0-4------|
Trem pick----------------------------------------|----------------------------------------|----------------------------------------|----------------------------------------|----------------------------------------|-1-3-4-8-7--3---1-3-4-8-7-10-11-7-------|
----------------------------------------------------------|----------------------------------------------------------|----------------------------------------------------------|-1--1--3--3--4--4--8--8--7--7--7--7--3--3---4-3-2-4-3-2---|--1--1--3--3--4--4--8--8--8--8--8--8--3--3----------------|---1--1--3--3--4--4--8--8--7--7--7--7--3--3---------------|
----------------------------------------------------------|----------------------------------------------------------|----------------------------------------------------------|-1--1--3--3--4--4--8--8--7--7--10--10--11--11--7--7-------|--1--1--3--3--4--4--8--8--8--8---8---8---8---8--8--8------|---1--1--3--3--4--4--8--8--7--7---7---7---7---7--7--7-----|
Second time around-----------------------------------------|-----------------------------------------|-----------------------------------------|-1--1--3--3--4--4--8--8--7--7--10--10----|--1--1--3--3--4--4--8--8--8--8---8---8---|---1--1--3--3--4--4--8--8--7--7---7---7--|
----------------------------------------|----------------------------------------|----------------------------------------|-7--4--8-------4-8-7-4-8-------4-8------|-3--0--4--0-0--0-4-3-0-4--0-0--0-4------|-3--0--4--0-0--0-4-3-0-4--0-0--0-4------|
Tap to rate this tab
 
# A B C D E F G H I J K L M N O P Q R S T U V W X Y Z