Veil Of Maya - Martyrs tab

                              veil of maya
                                Martyrs



----------------------|----------------------|----------------------|----------------------|----------------------|--00-00-0000--00-000--| x2
----------------------|----------------------|----------------------|----------------------|----------------------|--00-00-0000--00------|
---------------------------------------------------|---------------------------------------------------|---------------------------------------------------|--------1---1---1-------1-------1-------1---1---1--|--------5-0-5-0-5-0-000-5-0-000-5-0-0-0-5-0-5-0-5--|--2-1-0---0---0---0-000---0-000---0-0-0---0---0----|
-----------------|-----------------|-----------------|--------2-----2--|--------1-----1--|--0-1-2-1-0-1-1--|
-------------------------------------------------|-------------------------------------------------|-------------------------------------------------|------1---1---1-------1-------1-------1---1---1--|--000-5-0-5-0-5-0-000-5-0-000-5-0-0-0-5-0-5-0-5--|--000---0---0---0-000---0-000---0-0-0---0---0----|
-----------------|-----------------|-----------------|--------2-----2--|--------1-----1--|--0-1-2-1-0-1-1--|
------------------------------------------------------|------10---10------10-----------10-------10-------10--|------13---13------13-----------13-------13-------13--|------------------------------------------------------|--000----0---0-0-0----0-0000000----0-0-0----0-0-0-----|--000----0---0-0-0----0-0000000----0-0-0----0-0-0-----|
-----------------|-----------------|-----------------|--------2-----2--|--------1-----1--|--0-1-2-1-0-1-1--|
------------------------------------------------------|------10---10------10-----------10-------10-------10--|------13---13------13-----------13-------13-------13--|------------------------------------------------------|--000----0---0-0-0----0-0000000----0-0-0----0-0-0-----|--000----0---0-0-0----0-0000000----0-0-0----0-0-0-----|
-----------------|-----------------|-----------------|--------2-----2--|--------1-----1--|--0-1-2-1-0-1-1--|
-------|-------|-------|-------|-------|--/2b--
gt.1
----------------------|----------------------|----------------------|----------------------|--00-00-0000--00-000--|--00-00-0000--00-000--|x5
----------------|----------------|----------------|----------------|--00-00-0000-00-|--00-00-0000-00-|
----------------------|----------------------|----------------------|----------------------|--00-00-0000--00-000--|--00-00-0000--00-000--|x5
----------------------|----------------------|----------------------|----------------------|--00-00-0000--00--0---|--00-00-0000--00--0---|
gt.2----------------|--/11---/12-----|------8-----11--|----------------|----------------|----------------|
Marc said he was gna write a new album so cant wait to c that. hopefully in 2011
Tap to rate this tab
 
# A B C D E F G H I J K L M N O P Q R S T U V W X Y Z