Velvet Revolver - Sucker Train Blues tab

SUCKER TRAIN BLUES
                         As recorded by Velvet Revolver
                        (From the 2004 Album CONTRABAND)

Words and Music by Scott Weiland, Slash, Dave Kushner, Duff McKagan, Matt Sorum
Transcribed by Peter Phythian (flatbag@tpg.com.au)

Gtr I (E A D G B E) - 'Left Channel (o/d)'
Gtr II (E A D G B E) - 'Intro (clean)'
Gtr III (E A D G B E) - 'Right Channel (o/d)'
Gtr IV (E A D G B E) - 'Lead'
Gtr V (E A D G B E) - 'Solos'

Intro Q=167 N.C.(E) 4/4 Gtr I|---------|-----------|-------------|--------------|---------------||---------|-----------|-------------|--------------|---------------||---------|-----------|-------------|--------------|----------x-x--||---------|-----------|-------------|--------------|----------x-x--||---------|-----------|-------------|--------------|---------------||---------|-----------|-------------|--------------|---------------|
|
| Gtr II|---------|-----------|-------------|--------------|---------------||---------|-----------|-3--2--------|--------------|-3--2----------||---------|---3--4----|-------3--4--|-(4)--3--4----|-------3--4----||---------|-----------|-------------|--------------|---------------||---------|-----------|-------------|--------------|---------------||---------|-----------|-------------|--------------|---------------|
N.C.(E)|--------------|-------------|--------------|--------------||--------------|-------------|--------------|--------------||--------------|-------------|--------------|------------x-||--------------|-------------|--------------|------------x-||--------------|-------------|--------------|--------------||--------------|-------------|--------------|--------------|
|
|--------------|-------------|--------------|--------------||--------------|-3--2--------|--------------|-3--2---------||-(4)--3--4----|-------3--4--|-(4)--3--4----|-------3--4---||--------------|-------------|--------------|--------------||--------------|-------------|--------------|--------------||--------------|-------------|--------------|--------------|
N.C.(E)|--------------|-------------|------------------|-------------||--------------|-------------|-----x-x-x-x-x-x--|-------------||--------------|----------x--|-----x-x-x-x-x-x--|-------------||--------------|----------x--|-----x-x-x-x-x-x--|-------------||--------------|-------------|-----x-x-x-x-x-x--|-------------||--------------|-------------|------------------|-------------|
|
|--------------|-------------|------------------|-------------||--------------|-3--2--------|------------------|-3--2--------||-(4)--3--4----|-------3--4--|-(4)---3---4------|-------3--4--||--------------|-------------|------------------|-------------||--------------|-------------|------------------|-------------||--------------|-------------|------------------|-------------|
N.C.(E) G5 Gtrs I, III|--------------|-------------|--------------|--------------|||--------------|-------------|--------------|--------------|||--------------|-------------|--------------|--------------|||--------------|-------------|--------------|--------------|||--------------|-------------|--------------|------------5-|||--------------|-------------|--------------|------------3-||
|
|--------------|-------------|--------------|--------------|||--------------|-3--2--------|--------------|-3--2---------|||-(4)--3--4----|-------3--4--|-(4)--3--4----|-------3--4---|||--------------|-------------|--------------|--------------|||--------------|-------------|--------------|--------------|||--------------|-------------|--------------|--------------||
Pre-Verse Q=173 G5 E5 Gtrs I, III|---------------------|-----------------||---------------------|-----------------||---------------------|-----------------||---------------------|-3---------------||-(5)---4---5---------|-----7-3-4-5-1---||-(3)-3---3---3-(3)-3-|---3-----------0-|
|---------------------|-----------------||---------------------|-----------------||---------------------|-----------------||---------------------|-----------------||-------1---2---------|-5---4-0-1-2-----||-(0)-0---0---0-(0)-0-|---0---------2-3-|
G5|------------------------|--------------------------------||------------------------|--------------------------------||------------------------|--------------------------------||------------------------|--3-----------------------------||-------4---5------------|----------7---3-----4---5---1---||-(3)-3---3---3-(3)-3----|------3-----------------------0-|
|
| Gtr IV|------------------------|------3---3---------3---3-------||------------------------|------3---3---------3---3-------||-------------------5b7==|=(5)-(5)-(5)r-5b7==(5)-(5)r-----||------------------------|--------------------------------||------------------------|--------------------------------||------------------------|--------------------------------|
E5|------------------------|--------------------------------|||------------------------|--------------------------------|||------------------------|--------------------------------|||------------------------|--------------------------------|||-------1---2------------|--5-------4---0-----1---2-----2-|||-(0)-0---0---0-(0)-0----|------0---------------------3-0-||
|
|------------------------|------0---0---------0---0-------|||------------------------|------0---0---------0---0-------|||-------------------2b4==|=(2)-(2)-(2)r-2b4==(2)-(2)r-----|||------------------------|--------------------------------|||------------------------|--------------------------------|||------------------------|--------------------------------||
Verse $ E5 Gtr I|-------------------|----------|-------------------|----------||-------------------|----------|-------------------|----------||-------------------|----------|-------------------|----------||-------------------|----------|-------------------|----------||-(2)---1---2-------|----------|-------1---2-------|----------||-(0)-0---0----0----|--------0-|-(0)-0---0----0----|--------0-|
|
| Gtr III|-------------------|----------|-------------------|----------||-------------------|----------|-------------------|----------||-------------------|----------|-------------------|----------||-------------------|----------|-------------------|----------||-(2)---1---2-(2)---|--------2-|-(2)---1---2-(2)---|--------2-||-(0)-0---0----0----|--------0-|-(0)-0---0----0----|--------0-|
E5|-------------------|----------|-----------------------|-------------------||-------------------|----------|-----------------------|-------------------||-------------------|----------|-----------------------|-------------------||-------------------|----------|-----------------------|-------------------||-------1---2-------|----------|-------1---2-----------|-----------------2-||-(0)-0---0----0----|--------0-|-(0)-0---0----0--------|---------15\-----0-|
|
|-------------------|----------|-----------------------|-------------------||-------------------|----------|-----------------------|-------------------||-------------------|----------|-----------------------|-------------------||-------------------|----------|-----------------------|-------------------||-(2)---1---2-(2)---|--------2-|-(2)---1---2-(2)-(2)---|-5---4----1--2---2-||-(0)-0---0----0----|--------0-|-(0)-0---0----0--(0)-0-|---0---0-------3-0-|
E5 PM-----------------||---------------------|-----------------||---------------------|-----------------||---------------------|-----------------||---------------------|-----------------||-(2)---1---2----2--2-|-2-2-2-2-2-2-2-2-||-(0)-0---0---0--0--0-|-0-0-0-0-0-0-0-0-|
|
|---------------------|-0-0---0-0-0-0---||---------------------|-0-0---0-0-0-0---||-------3---4---------|-----------------||-----2---2---2-(2)-2-|---------------2-||-(2)-----------------|-----------------||-(0)-----------------|-----------------|
PM-----------------||---------------------|-----------------||---------------------|-----------------||---------------------|-----------------||---------------------|-----------------||-(2)---1---2----2--2-|-2-2-2-2-2-2-2-2-||-(0)-0---0---0--0--0-|-0-0-0-0-0-0-0-0-|
|
|---------------------|-0-0---0-0-0-0---||---------------------|-0-0---0-0-0-0---||-------3---4---------|-----------------||-(2)-2---2---2-(2)-2-|---------------2-||---------------------|-----------------||---------------------|-----------------|
E5 PM-----------------||---------------------|-----------------||---------------------|-----------------||---------------------|-----------------||---------------------|-----------------||-(2)---1---2----2--2-|-2-2-2-2-2-2-2-2-||-(0)-0---0---0--0--0-|-0-0-0-0-0-0-0-0-|
|
|---------------------|-0-0---0-0-0-0---||---------------------|-0-0---0-0-0-0---||-------3---4---------|-----------------||-(2)-2---2---2-(2)-2-|---------------2-||---------------------|-----------------||---------------------|-----------------|
A5 PM-----------------||---------------------|------------------|||---------------------|------------------|||---------------------|----------------2-|||---------------------|----------------2-|||-(2)---1---2----2--2-|-2-2-2-2-2-2-2--0-|||-(0)-0---0---0--0--0-|-0-0-0-0-0-0-0----||
|
|---------------------|-0-0---0-0-0-0----|||---------------------|-0-0---0-0-0-0----|||-------3---4---------|---------------14-|||-(2)-2---2---2-(2)-2-|---------------14-|||---------------------|---------------12-|||---------------------|------------------||
Pre-Chorus A5 G5 B5|-------------------------|-------------------------||-------------------------|-------------------------||--(2)--------------------|-------------------------||--(2)-2--2-2--2--2--2----|-------------------------||--(0)-0--0-0--0--0--0--5-|--(5)-5--5-5--5--5--5--9-||-----------------------3-|--(3)-3--3-3--3--3--3--7-|
|
|-------------------------|-------------------------||-------------------------|-------------------------||-(14)---14---14-14-14-12-|-(12)---12---12-12-12-16-||-(14)---14---14-14-14-12-|-(12)---12---12-12-12-16-||-(12)---12---12-12-12-10-|-(10)---10---10-10-10-14-||-------------------------|-------------------------|
A5|-------------------------|---------7---7---7------7---------||-------------------------|---------7---7---7------7---------||-------------------------|--9b11==(9)-(9)-(9)--9-(9)r-------||-------------------------|----------------------------------||--(9)-9--9-9--9--9--9--9-|--------------------------------7-||--(7)-7--7-7--7--7--7--7-|--------------------------------5-|
|
|-------------------------|----------------------------------||-------------------------|----------------------------------||-(16)---16---16-16-16-16-|-16-----16--16--16--16-16---16-14-||-(16)---16---16-16-16-16-|-16-----16--16--16--16-16---16-14-||-(14)---14---14-14-14-14-|-14-----14--14--14--14-14---14-12-||-------------------------|----------------------------------|
A5 G5 B5|-------------------------|-------------------------||-------------------------|-------------------------||-------------------------|-------------------------||-------------------------|-------------------------||--(7)-7--7-7--7--7--7--5-|--(5)-5--5-5--5--5--5--9-||--(5)-5--5-5--5--5--5--3-|--(3)-3--3-3--3--3--3--7-|
|
|-------------------------|-------------------------||-------------------------|-------------------------||-(14)---14---14-14-14-12-|-(12)---12---12-12-12-16-||-(14)---14---14-14-14-12-|-(12)---12---12-12-12-16-||-(12)---12---12-12-12-10-|-(10)---10---10-10-10-14-||-------------------------|-------------------------|
G5|-------------------------|---------------------|||-------------------------|---------------------|||-------------------------|---------------------|||-------------------------|---------------------|||--(9)-9--9-9--9--9--9--9-|--9--9--9--9-8-7---5-|||--(7)-7--7-7--7--7--7--7-|--7--7--7--7-6-5-0-3-||
|
|-------------------------|---------------------|||-------------------------|---------------------|||-(16)---16---16-16-16-16-|-16-16-16-16---------|||-(16)---16---16-16-16-16-|-16-16-16-16---------|||-(14)---14---14-14-14-14-|-14-14-14-14---------|||-------------------------|-------------6-5-0-3-||
Chorus G5 E5 Gtrs I, III||----------------------|-----------------|||o---------------------|-----------------|||----------------------|-----------------|||----------------------|-3---------------|||o-(5)---4---5---------|-----7-3-4-5-1---|||--(3)-3---3---3-(3)-3-|---3-----------0-|
G5 3x|---------------------|-------------------|||---------------------|------------------o|||---------------------|-------------------|||---------------------|-------------------|||-------1---2---------|-5---4-0-1-2---5--o|||-(0)-0---0---0-(0)-0-|---0---------2-3---||
To Coda G5 E5 Gtr I|---------------------|-----------------|---------------------||---------------------|-----------------|---------------------||---------------------|-----------------|---------------------||---------------------|-3---------------|---------------------||-(5)---4---5---------|-----7-3-4-5-1---|-------1---2---------||-(3)-3---3---3-(3)-3-|---3-----------0-|-(0)-0---0---0-(0)-0-|
|
| Gtr III|---------------------|-----------------|---------------------||---------------------|-----------------|---------------------||---------------------|-----------------|---------------------||---------------------|-3---------------|---------------------||-(5)---4---5---------|-----7-3-4-5-1---|-------1---2---------||-(3)-3---3---3-(3)-3-|---3-----------0-|-(0)-0---0---0-(0)-0-|
D.S. al Coda & D5|-----------------||----------------------|||-----------------||----------------------|||-----------------||----------------------|||-----------------||----------------7-----|||-5---4-0-1-2---2-||-5---4-0-1-2----5-----|||---0---------3-0-||---0---------0--------||
|
|-----------------||----------------------|||-----------------||---------------10-----|||-----------------||---------------12b14==|||-----------------||----------------------|||-5---4-0-1-2---2-||-5---4-0-1-2----------|||---0---------3-0-||---0---------0--------||
Bridge D5 C5 E5 PM PM||------------------------------------|-------------------------------------|||o-----------------------------------|-------------------------------------|||------------------------------------|-------------------------------------|||---(7)---7-7---7----7---(7)---5-----|--(5)----5--5---5----5---(5)---------|||o--(5)---5-5---5----5---(5)---3-----|--(3)----3--3---3----3---(3)---2-----|||------------------------------------|-------------------------------0-----|
|
||--------10----10---10--(10)---------|---------8------8----8---(8)---------|||o-(10)--10----10---10--(10)---8-----|--(8)----8------8----8---(8)--12-----|||--(12)--12---(12)-(12)-(12)r-10b12==|=(10)--(10)---(10)-(10)-(10)r-14b16==|||------------------------------------|-------------------------------------|||o-----------------------------------|-------------------------------------|||------------------------------------|-------------------------------------|
D5 PM PM PM PM 3x|------------------------|---------------------------------|||------------------------|--------------------------------o|||------------------------|---------------------------------|||------------------------|-------------------------7-------|||--(2)---2--2--2-2--2--2-|-(2)-----2--2--2---2--2--5------o|||--(0)---0--0--0-0--0--0-|-(0)-----0--0--0---0--0----------||
|
| 3x|-------12-12------12-12-|-----12-12-12--------------------|||-(12)--12-12------12-12-|-12--12-12-12-----------10------o|||-(14)--------14---------|-14-----------14r(14)---12b14====|||------------------------|---------------------------------|||------------------------|--------------------------------o|||------------------------|---------------------------------||
D5 C5 B5 PM PM|-----------------------------------|--------------------------------||-----------------------------------|--------------------------------||-----------------------------------|--------------------------------||--(7)---7-7---7----7---(7)---5-----|--(5)----5--5---5----5---(5)--4-||--(5)---5-5---5----5---(5)---3-----|--(3)----3--3---3----3---(3)--2-||-----------------------------------|--------------------------------|
|
|-------10----10---10--(10)---------|---------8------8----8---(8)----||-(10)--10----10---10--(10)---8-----|--(8)----8------8----8---(8)----||-(12)--12---(12)-(12)-(12)r-10b12==|=(10)--(10)---(10)-(10)-(10)r---||-----------------------------------|------------------------------4-||-----------------------------------|------------------------------2-||-----------------------------------|--------------------------------|
E5|------------------|-----------------|||------------------|-----------------|||------------------|-----------------|||-(4)--4-4-4-4-4-4-|-4-4-4-4-4-4-4---|||-(2)--2-2-2-2-2-2-|-2-2-2-2-2-2-2-2-|||------------------|---------------0-||
|
|------------------|-----------------|||------------------|-----------------|||------------------|-----------------|||-(4)--4-4-4-4-4-4-|-4-4-4-4-4-4-4---|||-(2)--2-2-2-2-2-2-|-2-2-2-2-2-2-2-2-|||------------------|---------------0-||
Guitar Solo E5 G5 Gtr IV \1/ \1/ \1/ \1/ \1/ \1/ \1/ \1/ \1/ \1/ \1/ \4|--------------------------------------------------------|-----------------------------------||--------------------------------------------------------|--------------------------------8--||--------------------------------------------------------|----------------------0--------(0)-||-<12>--(<12>)-(<12>)-(<12>)-(<12>)-(<12>)-(<12>)-(<12>)-|-(<12>)-(<12>)-(<12>)--------------||--------------------------------------------------------|-----------------------------------||--------------------------------------------------------|-----------------------------------|
|
| Gtrs I, III| PM---------------------------------------||--------------------------------------------------------|-----------------------------------||--------------------------------------------------------|-----------------------------------||--------------------------------------------------------|-----------------------------------||--------------------------------------------------------|-----------------------------------||--(2)------------1-------------2-------------2------2---|----2------2------2---2--2-2-2--5--||--(0)-----0-------------0-------------0------0------0---|----0------0------0---0--0-0-0--3--|
E5 / ~~~ ~~~~ ~~~~~|--------------------------------------|------------------------------------||-(8)---(8)-13b15==(13)---(13)r-13b15==|=(13)r-13b15==(13)r---------12-(12)-||-(0)---(0)----------------------------|------------------------------------||--------------------------------------|------------------------------------||--------------------------------------|------------------------------------||--------------------------------------|------------------------------------|
|
| PM------------------------------------||--------------------------------------|------------------------------------||--------------------------------------|------------------------------------||--------------------------------------|------------------------------------||--------------------------------------|------------------------------------||-(5)----4-----------5------5----5-----|---5----5-------5---5-5-5-5------2--||-(3)-3------3----------3---3----3-----|---3----3-------3---3-3-3-3------0--|
E5 G5 \2/ \2/ \1/|----------------------------12--------------|---------12-----------------------------------||-(12)---15p12h15p12-15b17------15p12-15b17==|=(15)r------15p12-15-(15)--(15)-(15)--12h==15-||--------------------------------------------|----------------------------------------------||--------------------------------------------|----------------------------------------------||--------------------------------------------|----------------------------------------------||--------------------------------------------|----------------------------------------------|
|
| PM----------------------------------------------||--------------------------------------------|----------------------------------------------||--------------------------------------------|----------------------------------------------||--------------------------------------------|----------------------------------------------||--------------------------------------------|----------------------------------------------||--(2)----1-----------2-------2-----2--------|---2---2-----2-----2---2-----2----2----5------||--(0)-0--------0----------0--0-----0--------|---0---0-----0-----0---0-----0----0----3------|
\1/|-----------------------------------------15b17===||-12---12h15--------15----------------------------||------------14b16=====14r14p12-14---12-----------||-------------------------------------------------||-------------------------------------------------||-------------------------------------------------|
|
| PM---||-------------------------------------------------||-------------------------------------------------||-------------------------------------------------||-------------------------------------------------||-(5)---------4---------5----------5----5---------||-(3)---3------------3--------3----3----3---------|
G5 E5 \3 ~~~~~~~~~~~~~~|-(15)r-15-(15)---(15)-<12>---15b17==|=15r---15---12----12-------||----------------------<12>----------|---------------15----12-15-||------------------------------------|---------------------------||------------------------------------|---------------------------||------------------------------------|---------------------------||------------------------------------|---------------------------|
|
| PM----------------------| PM-------|------------------------------------|---------------------------||------------------------------------|---------------------------||------------------------------------|---------------------------||------------------------------------|---------------------------||---5----5---5--5---5----5--5--2-----|-(2)----1----2-----2--2----||---3----3---3--3---3----3--3--0-----|-(0)-0----0-----0--0--0----|
G5|---------------------------------------------------------------------||-(15)-12--------15-------------------15-------------------15---------||---------14b16=====14r(14)-12-14b16=====14r(14)-12-14b16=====14r(14)-||---------------------------------------------------------------------||---------------------------------------------------------------------||---------------------------------------------------------------------|
|
|---------------------------------------------------||---------------------------------------------------------------------||---------------------------------------------------------------------||---------------------------------------------------------------------||---------------------------------------------------------------------||---2------2---------2-------2---------2------2------2---------5------||---0------0---------0-------0---------0------0------0---------3------|
G5 \4|-------------------------------------------------------||-------12----12--------------15------------------------||-14b16----15----14-12-14b16=====14r(14)p12----14----0--||-------------------------------------------14----14----||-------------------------------------------------------||-------------------------------------------------------|
|
| PM-------|-------------------------------------------------------||-------------------------------------------------------||-------------------------------------------------------||-------------------------------------------------------||-(5)-------------4---------------5-------------5----5--||-(3)-------3-----------3-----------------3-----3----3--|
A5 G5 ~~~~|---------17-(17)b19========|=(17)------(17)r17p15-17-||---------------------------|-------------------------||-(0)-----------------------|-------------------------||---------------------------|-------------------------||---------------------------|-------------------------||---------------------------|-------------------------|
|
|-----------------------||---------------------------|-------------------------||---------------------------|-------------------------||---------------------------|-------------------------||---------------------------|-------------------------||--5--5-5--5---5------5-5-7-|--(7)--7-7---7---7--7--5-||--3--3-3--3---3------3-3-5-|--(5)--5-5---5---5--5--3-|
G5 B5|-17--15-17-15----17pb19r17p15----17p15-17b19==||--------------17--------------17--------------||----------------------------------------------||----------------------------------------------||----------------------------------------------||----------------------------------------------|
|
| PM-----------------------------||----------------------------------------------||----------------------------------------------||----------------------------------------------||----------------------------------------------||-(5)-----5--5-----5---------5-----5-----9-----||-(3)-----3--3-----3---------3-----3-----7-----|
C5 N.C.|-(17)--------------|-(17)-----------(17)r-(17)b20==|=(17)r\------|||-------------------|-------------------------------|-------------|||-------------------|-------------------------------|-------------|||-------------------|-------------------------------|-------------|||-------------------|-------------------------------|-------------|||-------------------|-------------------------------|-------------||
|
|-------------------|-------------------------------|-------------|||-------------------|-------------------------------|-------------|||-------------------|-------------------------------|-------------|||-------------------|-------------------------------|-------------|||--(9)--9-9-9-9-9-9-|---9--9-9-9-9-9---9----10------|-(10)\-------|||--(7)--7-7-7-7-7-7-|---7--7-7-7-7-7---7-----8------|--(8)\-------||
Breakdown N.C. G5 Gtr III|---------|------------|-----------|---------------------|||---------|--------x-x-|-x-x-------|-x-x-x-x-x-x-x-x-x---|||---------|--------x-x-|-x-x-------|-x-x-x-x-x-x-x-x-x---|||---------|--------x-x-|-x-x-------|-x-x-x-x-x-x-x-x-x---|||---------|--------x-x-|-x-x-------|-x-x-x-x-x-x-x-x-x---|||---------|------------|-----------|---------------------||
Gtrs I, III|----------------|-----------------|-------------|||-x-x--x-x-x-x---|-x-x-x-x-x-x-x-x-|-------------|||-x-x--x-x-x-x---|-x-x-x-x-x-x-x-x-|-------------|||-x-x--x-x-x-x---|-x-x-x-x-x-x-x-x-|-------------|||-x-x--x-x-x-x---|-x-x-x-x-x-x-x-x-|-14\-------5-|||----------------|-----------------|-----------3-||
Out-Chorus G5 E5||----------------------|-----------------|||o---------------------|-----------------|||----------------------|-----------------|||----------------------|-3---------------|||o-(5)---4---5---------|-----7-3-4-5-1---|||--(3)-3---3---3-(3)-3-|---3-----------0-|
G5 5x|---------------------|-------------------|||---------------------|------------------o|||---------------------|-------------------|||---------------------|-------------------|||-------1---2---------|-5---4-0-1-2---5--o|||-(0)-0---0---0-(0)-0-|---0---------2-3---||
G5 E5|---------------------|-----------------||---------------------|-----------------||---------------------|-----------------||---------------------|-3---------------||-(5)---4---5---------|-----7-3-4-5-1---||-(3)-3---3---3-(3)-3-|---3-----------0-|
|---------------------|-----------------||---------------------|-----------------||---------------------|-----------------||---------------------|-----------------||-------1---2---------|-5---4-0-1-2---2-||-(0)-0---0---0-(0)-0-|---0---------3-0-|
E5|------------|----------|------------|--------|||------------|----------|------------|--------|||------------|----------|------------|--------|||------------|----------|------------|--------|||-(2)--------|-------2--|-(2)--------|-(2)----|||-(0)--------|-------0--|-(0)--------|-(0)----||
Outro Q=167 E5 >|--------------|---------------|--------------|---------------||--------------|---------------|--------------|---------------||--------------|---------------|--------------|---------------||--------------|---------------|--------------|---------------||-(2)----------|-(2)-----------|-(2)----------|-(2)-----------||-(0)----------|-(0)-----------|-(0)----------|-(0)-----------|
|
| Gtr II| <|--------------|---------------|--------------|---------------||--------------|--3---2--------|--------------|--3---2--------||------3--4----|---------3--4--|-(4)--3--4----|---------3--4--||--------------|---------------|--2-----------|---------------||--------------|---------------|--------------|---------------||--------------|---------------|--------------|---------------|
(E5) Gtr II|--------------|-------------|--------------|-------------||--------------|-3--2--------|--------------|-3--2--------||-(4)--3--4----|-------3--4--|-(4)--3--4----|-------3--4--||--2-----------|-------------|--2-----------|-------------||--------------|-------------|--------------|-------------||--------------|-------------|--------------|-------------|
(E5)|--------------|-------------|--------------|-------------*||--------------|-3--2--------|--------------|-3--2--------*||-(4)--3--4----|-------3--4--|-(4)--3--4----|-------3--4--*||--2-----------|-------------|--2-----------|-------------*||--------------|-------------|--------------|-------------*||--------------|-------------|--------------|-------------*|
Tablature Legend ---------------- h - hammer-on p - pull-off b - bend pb - pre-bend r - bend release (if no number after the r, then release immediately) /\ - slide into or out of (from/to "nowhere") s - legato slide S - shift slide - natural harmonic [n] - artificial harmonic n(n) - tapped harmonic ~ - vibrato tr - trill T - tap TP - trem. picking PM - palm muting \n/ - tremolo bar dip; n = amount to dip \n - tremolo bar down n/ - tremolo bar up /n\ - tremolo bar inverted dip = - hold bend; also acts as connecting device for hammers/pulls <> - volume swell (louder/softer) x - on rhythm slash represents muted slash o - on rhythm slash represents single note slash Misc Legend ----------- | - bar || - double bar ||o - repeat start o|| - repeat end *| - double bar (ending) : - bar (freetime) $ - Segno & - Coda Tempo markers - = BPM(8/16=s8/s16), where s8 = swing 8ths, s16 = swing 16ths
Tap to rate this tab
 
# A B C D E F G H I J K L M N O P Q R S T U V W X Y Z