Velvet Revolver - Headspace tab

This is my version of the Velvet Revolver song "Headspace" off their Contraband album.
play it different than most other tabs on the main riff because you get more of the
heavy sound. Im not too sure on the solo, but i tried my best, im 14, so i only want to 
and i am open to constructive critisism. So comment and rate!  Enjoy!!!!!!!!!!!!!


Intro|------------------------------------------| X4|------------------------------------------||------------------------------------------||-10-10-10-10-10-10-10-10-10/12-12-12-12-12||-10-10-10-10-10-10-10-10-10/12-12-12-12-12||-10-10-10-10-10-10-10-10-10/12-12-12-12-12|
|--------------------------| X8|--------------------------||--------------------------||-10-12-10-0-3-0-3-0-3-0-2-||-10-12-10-0-3-0-3-0-3-0-2-||-10-12-10-0-3-0-3-0-3-0-2-|
Verse
|---------------/5-5-5-5-5\| X8|---------------/5-5-5-5-5\||---------------/5-5-5-5-5\||-5-7-7-7-7-5-7-/5-5-5-5-5\||-5-7-7-7-7-5-7-/5-5-5-5-5\||-5-7-7-7-7-5-7-/5-5-5-5-5\|
Chorus
|--------------------------| X4|--------------------------||--------------------------||-10-12-10-0-3-0-3-0-3-0-2-||-10-12-10-0-3-0-3-0-3-0-2-||-10-12-10-0-3-0-3-0-3-0-2-|
Verse
|---------------/5-5-5-5-5\| X8|---------------/5-5-5-5-5\||---------------/5-5-5-5-5\||-5-7-7-7-7-5-7-/5-5-5-5-5\||-5-7-7-7-7-5-7-/5-5-5-5-5\||-5-7-7-7-7-5-7-/5-5-5-5-5\|
Chorus
|--------------------------| X8|--------------------------||--------------------------||-10-12-10-0-3-0-3-0-3-0-2-||-10-12-10-0-3-0-3-0-3-0-2-||-10-12-10-0-3-0-3-0-3-0-2-|
BridgeGuitar 1|-------------------------| X10|-------------------------||-------------------------||-3-5-3-0-----------------||--------5-3-5-3--5-3-5-3-||-------------------------|
Guitar 2
|------------------------------------------| X2|------------------------------------------||------------------------------------------||--0------------3-----------10------------8||--0------------3-----------10------------8||--0------------3-----------10------------8|
Solo
|------------------------------------------------||------------------------------------------------||------------------------------------------------||-5b-[5][5][5][5][5][5][5][5][5][5]--3-5-3-0-3---||------------------------------------------------||------------------------------------------------|
|-12br----------10---10---------------------------------||-----10-13-13---13b----13p12p10------------------------||--------------------------------13p12p10--12b-10----10-||-------------------------------------------------12----||-------------------------------------------------------||-------------------------------------------------------|
|-----------------------------------------------||-----------------------------------------------||-----------------------------------------------||-----------------------------3-5-3-0-3-5-3-0-3-||-------------------------3-5-------------------||-5b-----------r--3-5-3-0-----------------------|
|-----------------------------------10---10-------------------||-------------------------------------13b--13p12p10----10-12b-||-----------------------9h10p9----9-----------------12b-------||-------9h10h12-9h10h12--------12-----------------------------||-10h12-------------------------------------------------------||-------------------------------------------------------------|
|-10-13p10-12p10--10p13p10-12p10--10--------------------------------||---------------13--------------13--13p10h12p10--10-----------------||----------------------------------------------13--12p10--10-12~~~~-||-------------------------------------------------------12----------||-------------------------------------------------------------------||-------------------------------------------------------------------|
Post Solo|---------------| X4|---------------||---------------||-5-7-7-7-7-5-7-||-5-7-7-7-7-5-7-||-5-7-7-7-7-5-7-|
Chorus
|--------------------------| X8|--------------------------||--------------------------||-10-12-10-0-3-0-3-0-3-0-2-||-10-12-10-0-3-0-3-0-3-0-2-||-10-12-10-0-3-0-3-0-3-0-2-|
Bridge
BridgeGuitar 1|-------------------------| X10|-------------------------||-------------------------||-3-5-3-0-----------------||--------5-3-5-3--5-3-5-3-||-------------------------|
Guitar 2
|------------------------------------------| X2|------------------------------------------||------------------------------------------||--0------------3-----------10------------8||--0------------3-----------10------------8||--0------------3-----------10------------8|
Outro
|--------------------------| X4|--------------------------||--------------------------||-10-12-10-0-3-0-3-0-3-0-2-||-10-12-10-0-3-0-3-0-3-0-2-||-10-12-10-0-3-0-3-0-3-0-2-|
|------------------------------------------| X4|------------------------------------------||------------------------------------------||-10-10-10-10-10-10-10-10-10/12-12-12-12-12||-10-10-10-10-10-10-10-10-10/12-12-12-12-12||-10-10-10-10-10-10-10-10-10/12-12-12-12-12|
|--------------------------||--------------------------||--------------------------||-10-12-10-0-3-0-3-0-3-0-2-||-10-12-10-0-3-0-3-0-3-0-2-||-10-12-10-0-3-0-3-0-3-0-2-|
Tap to rate this tab
 
# A B C D E F G H I J K L M N O P Q R S T U V W X Y Z