Velvet Revolver – Illegal I Song tab

This is one of VR's best songs n ther hasnt been a gd tab on here that isnt guitar pro 
i decided 2 tab how i play it, enjoy!

Intro


Guitar I

-------------------------------|-------------------------------|-------------------------------|-------------------------------|-------------------------------|-------------------------3-----|-------------------------7--5--|-------------------------5--5--|-------------------------7--5--|-------------------------3--5--|-2-2-2-2-0-2-3-2--2-2-2--5--3--|-2-2-2-2-0-2-3-2--2-2-2-----3--|
x2
-------------------------------|-------------------------------|-------------------------------|-------------------------------|-------------------------------|-------------------------------|-------------------------7--5--|-------------------------------|-------------------------7--5--|-------------------------------|-2-2-2-2-0-2-3-2--2-2-2--5--3--|-2-2-2-2-0-2-3-2~--------------|
Guitar II
-------------------------------|-------------------------8-----|-7-7-7-7-5-7-8-7--7-7-7--10--8-|-7-7-7-7-5-7-8-7--7-7-7--8--7--|-6-6-6-6-6-6-6-6--6-6-6--9---7-|-6-6-6-6-6-6-6-6--6-6-6-----6--|-------------------------------|-------------------------------|-------------------------------|-------------------------------|-------------------------------|-------------------------------|
x2
-------------------------------|-------------------------------|-7-7-7-7-5-7-8-7--7-7-7--10--8-|-7-7-7-7-5-7-8-7~--------------|-6-6-6-6-6-6-6-6--6-6-6--9---7-|-6-6-6-6-6-6-6-6~--------------|-------------------------------|-------------------------------|-------------------------------|-------------------------------|-------------------------------|-------------------------------|
After running through the intro once a third guiar comes in with this Guitar III
-------------------------------|-------------------------------|-7--------------5--------------|-7--------------5--------------|-6-------------(6)-------------|-6-------------(6)-------------| x2-------------------------------|-------------------------------|-------------------------------|-------------------------------|-------------------------------|-------------------------------|
Verse This is pretty simple, i think thers only 1 guitar in this bit but ther is something played at every rest the second time round but ive no clue as to what it is.
-------------------------------| |-------------------------|-------------------------------| |-------------------------|-------------------------------| |-------------------------|-------------------------------|x3 |-------------------------|-------------------------------| |-------------------------|-2-2-2-2-0-2-3-2---------------| |-2-2-2-2-0-2-3-2--/14----|
This is then repeated and then it plays the intro again but without guitar 3, and then goes in2 the chorus. Chorus
--------------------------------------|------------------------------------|--------------------------------------|------------------------------------|-7777777777777755--777777777777771010-|-7777777777777755--77777777777771010|-xxxxxxxxxxxxxxxx--xxxxxxxxxxxxxxx-x--|-xxxxxxxxxxxxxxxx--xxxxxxxxxxxxxx-x-|-5555555555555533--555555555555558-8--|-5555555555555533--55555555555558-8-|--------------------------------------|------------------------------------|
I no ther is another guitar in ther possibly another a 3rd as well but again i dont ave clue what is is! After the chorus you go back 2 playing the intro but with all three and then the verse and then the chorus. Solo 1 This is a pretty kwl but easy solo with lots of large bends, I usually put in quite alot vibrato.
--------------------------------------------------------------------------|-19b22--19~--17-19-(19)b21r19--17h19-17-(17)b19---14b17--14-12-(12)b14r12-|--------------------------------------------------------------------------|--------------------------------------------------------------------------|--------------------------------------------------------------------------|--------------------------------------------------------------------------|
---------------------------------------------------------|---------------------------------------------------------|---------------------------------------------------------|-6b8r\4--2-4-(4)b6r4--2h4-2-(2)b4~-----------------------|-------------------------------------4b6----4-2--2b4r2~--|---------------------------------------------------------|
Solo 2 This bit is probably my favourite part of the song n its really simple to play as long u can pick with both sides of the pick!
---------------------------------------------------------|---------------------------------------------------------|-9-11-11-11-9-11-b12.5-11--9-11-9----9-9-9-9-9-9-9-9-9-9-|----------------------------------11---------------------|---------------------------------------------------------|---------------------------------------------------------|
---------------------------------------|---------------------------------------|-4h6-6-6-6-6-6-6-4p3-4p3h4p3h4p3-------|---------------------------------4-2~--|---------------------------------------|---------------------------------------|
----------------------------------------------------------|----------------------------------------------------------|-9-11-11-11-9-11b12.5--11--9-11-9----9-9-9-9-9-9-9-9-9-9--|-----------------------------------11---------------------|----------------------------------------------------------|----------------------------------------------------------|
----------------------------------------------|----------------------------------------------|-4h6-6-6-6-6-6-6-4p3h4p3h4p3h4p3h4p3h4p3h4p3--|----------------------------------------------|----------------------------------------------|----------------------------------------------|The notes are probably played alot more then i have tabbed but i'll leave that for you 2 out!
After that it goes something along the lines of this
---------------------------------| ----------------------------|---------------------------------| ----------------------------|---------------------------------|x3 ----------------------------|-2h4-4-4-2-4-5-4--4-4-4-2-4-4-4--| -2h4-2-2h4-2-2h4------------|---------------------------------| --------------------{////}--|---------------------------------| --------------------{////}--|
| (Pick Slide) After that its runs through the chorus a few times and then goes back to the intro and plays some solo over the top of it but i havnt worked tht out yet. Email me at hoody_505@hotmail.com if u ave n e questions of n e thing like that.
Please rate this tab:
x1.0