Velvet Revolver – Spectacle tab

Song: Spectacle
Band: Velvet Revolver
Album: Contraband
Tabbed by: Kabir
ktaneja@latrobe.students.latrobe.edu.au

*********** \m/ ***********


Gtr I (Eb Ab Db Gb Bb Eb) - 'Slash'
Gtr II("  "  "  "  "  " ) - 'Dave Kusher"

 4/4
  Gtr I
    
::Intro - count how many times the riff plays urself::
     
|---------------------------------------------||---------------------------------------------||---------------------------------------------||---------------------------------------------||---------4-1-1-4-1-1-4-1--4-1-1-4-1-1-4-1----||--/5b6---------------------------------------|
::Verse 1 played with riff below::
|--------------------------------------------||--------------------------------------------||--------------------------------------------||--------------------------------------------||-4-1-1-4-1-1-4-1--4-1-1-4-1-1-4-1--6---4----||-----------------------------------4---2----|
"Take two to break and three to go Hold me back you spectacle (Mother ***er yeah) Kick me down with broken bones You picked a fight now stand your ground" ::Chorus - played with below chords:: ~
|-----------------------||-----------------------||-8----------------6----||-8-----8-----4----6----||-6-----8-----4----4----||-6-----6-----2----4----|
"You talk about it Don't know what you want In the back of someone else's car" ::Verse 2 - again same as verse 1::
|--------------------------------------------||--------------------------------------------||--------------------------------------------||--------------------------------------------||-4-1-1-4-1-1-4-1--4-1-1-4-1-1-4-1--6---4----||-----------------------------------4---2----|
"You write the list Well write me off Rocket bitch is blasting off (Right on target yeah) Boots laced up I'm here to go In the end I'll stand alone" ::Chorus::
|-----------------------||-----------------------||-8----------------6----||-8-----8-----4----6----||-6-----8-----4----4----||-6-----6-----2----4----|
"You talk about it Don't know what you want In the back of someone else's car You lied about it Bled another heart Then began to fall apart" ::Bridge - chords change at the ending of the bridge, listen to song.::
|-----------------------------------||-----------------------------------||-----------------------------------||-4-----3--------4----3----6---4----||-4-----3--------4----3----6---4----||-2-----1--------2----1----4---2----|
"It rains and you fall back down again It begins to rain and I'll knock you right back down again"
|---------------------||---------------------||---------------------||-4---11---13---15----||-4---11---13---15----||-2----9---11---13----|
"You incessant bitch you lied in wait for the last time now I'm standing now I'm standing now" :Solo - chords for the solo you can work out yourself, they are very simple"
|------------------------------------------------------------------------16----18-16-------------||-14-------14-------14-------------14b15---------------------------16b18----16-------------------||----15-15----15-15----15-15-13-15---------------------------------------------------15-16-18-15-||-----------------------------------------6S8-8-6S8-8-6S8-8-6S8-8--------------------------------||------------------------------------------------------------------------------------------------||-----------------------------------------4S6-6-4S6-6-4S6-6-4S6-6--------------------------------|
|-----------------------------------------------------------------------------------------------------------||-20b21.5--17-18-17----17----17----17---------18b19.5--16-20-18-16-18-16----16-----------------16-----------||-------------------19----19----19-------14------------------------------20----20-20p-18-16-18----20-18-16--||-------------------------------------19--------------------------------------------------------------------||-----------------------------------------------------------------------------------------------------------||-----------------------------------------------------------------------------------------------------------|
|-------------------12------------------------------------18----18-16----------||-14b15.5--14-12-14----15-12-15-12----12---16b17.5--16b17----16-------18-16----||----------------------------------14------------------------------------------||------------------------------------------------------------------------------||------------------------------------------------------------------------------||------------------------------------------------------------------------------|
~~~~~~~
|-21-20-18-18-18-16-15----15----15-------15----------------------15-------------------------------||----------------------18----18----18-15----18-15-16----15-16-18----18-15-16----16-----21b22.5----||----------------------------------------------------17----------------------17----17-------------||-------------------------------------------------------------------------------------------------||-------------------------------------------------------------------------------------------------||-------------------------------------------------------------------------------------------------|
::Just this before moves forward after solo::
|-----------------|--------------------||-----------------|--------------------||-----------------|--------------------||-----------------|--------------------||-4-1-1-4-1-1-4-1-|-4-1-1-4-1-1-4-1----||-----------------|--------------------|
::Verse 1 repeat::
|--------------------------------------------||--------------------------------------------||--------------------------------------------||--------------------------------------------||-4-1-1-4-1-1-4-1--4-1-1-4-1-1-4-1--6---4----||-----------------------------------4---2----|
"Take two to break and three to go Hold me back you spectacle (Mother ***er yeah) Kick me down with broken bones You picked a fight now stand your ground" ::Chorus::
|-----------------------||-----------------------||-8----------------6----||-8-----8-----4----6----||-6-----8-----4----4----||-6-----6-----2----4----|
"You talk about it Don't know what you want In the back of someone else's car You lied about it Bled another heart Then began to fall apart" ::Chorus - This time with an added riff in the back ground, play Riff X over chords::
|-----------------------||-----------------------||-8----------------6----||-8-----8-----4----6----||-6-----8-----4----4----||-6-----6-----2----4----|
>>Riff X<<
|-----------------|----------------||-----------------|----------------||-----------------|----------------||-0-3-2-3-3-4-3-0-|-3-2-3-3-4-3----| X i dunno how many times, count.|-----------------|----------------||-----------------|----------------|
"You talk about it Don't know what you want In the back of someone else's car You lied about it Bled another heart Then began to fall apart" ::Outro::
|-----------------|--------------------||-----------------|--------------------||-----------------|--------------------||-----------------|--------------------||-4-1-1-4-1-1-4-1-|-4-1-1-4-1-1-4-1----||-----------------|--------------------|
>>End with Bb<< ::Finis:: Duration Legend --------------- W - whole; H - half; Q - quarter; E - 8th; S - 16th; T - 32nd; X - 64th; a - acciaccatura + - note tied to previous; . - note dotted; .. - note double dotted Uncapitalized letters represent notes that are staccato (1/2 duration) Irregular groupings are notated above the duration line Duration letters will always appear directly above the note/fret number it represents the duration for. Duration letters with no fret number below them represent rests. Multi- bar rests are notated in the form Wxn, where n is the number of bars to rest for. Low melody durations appear below the staff Tablature Legend ---------------- h - hammer-on p - pull-off b - bend pb - pre-bend r - bend release (if no number after the r, then release immediately) /\ - slide into or out of (from/to "nowhere") s - legato slide S - shift slide - natural harmonic [n] - artificial harmonic n(n) - tapped harmonic ~ - vibrato tr - trill T - tap TP - trem. picking PM - palm muting \n/ - tremolo bar dip; n = amount to dip \n - tremolo bar down n/ - tremolo bar up /n\ - tremolo bar inverted dip = - hold bend; also acts as connecting device for hammers/pulls <> - volume swell (louder/softer) x - on rhythm slash represents muted slash o - on rhythm slash represents single note slash Misc Legend ----------- | - bar || - double bar ||o - repeat start o|| - repeat end *| - double bar (ending) : - bar (freetime) $ - Segno & - Coda Tempo markers - = BPM(8/16=s8/s16), where s8 = swing 8ths, s16 = swing 16ths
Please rate this tab:
x1.0