Verdena - Solo Un Grande Sasso tab

Verdena - Solo un Grande Sasso pt. 1


Tuning: Db Ab Db Gb Ab Eb 

Intro (0:00)|-----0--||--------||--------||---3----| |-5------||--------|
(0:31)|---------------0--| |---------------0--||-7-7/9-9/5-5/7-7--||------------------| X2|-5-5/7-7/3-3/5-5--||------------------|
(0:47)|--------------------0---------||--------------------0---------||-5/7-7/9-9/10-10/14-14/15/14--||------------------------------||-3/5-5/7-7/8--8/12--12/13/12--||------------------------------|
(0:55) |--------------------------0--||--------------------------0--||-10/14-14/12--12/10-10/9--9--||-----------------------------|X2|-8-/12-12/10--10/8--8/7---7--||-----------------------------|
Repeat
Verse (1:52) |-----0--||--------||--------||---3----| |-5------||--------|Scopri i lividi Illusi su di te. E nuda sei pił dea. Freni e svieni ed io non so.
(2:24)|-----------------0--| |-----------------0--||-7-7/9-9/10-10/7-7--||--------------------|X2|-5-5/7-7/8--8/-5-5--||--------------------|io non so...
(2:40)|--------------------0---------||--------------------0---------||-5/7-7/9-9/10-10/14-14/15/14--||------------------------------||-3/5-5/7-7/8--8/12--12/13/12--||------------------------------|
(2:49)|--------------------------0--||--------------------------0--||-10/14-14/12--12/10-10/9--9--||-----------------------------||-8-/12-12/10--10/8--8/7---7--||-----------------------------|
(2:57)|-----0--||--------||--------||---3----| |-5------||--------|Rimi in bricciole e sole su di te. Ma tu non sei pił vera. Tutto quello che io so.
(3:28)|---------------0--| |---------------0--||-7-7/9-9/5-5/7-7--||------------------| |-5-5/7-7/3-3/5-5--||------------------|io lo so...
(3:36)|-----------------0--| |-----------------0--||-7-7/9-9/10-10/7-7--||--------------------||-5-5/7-7/8--8/-5-5--||--------------------|io lo so...
(3:44)|--------------------0---------||--------------------0---------||-5/7-7/9-9/10-10/14-14/15/14--||------------------------------||-3/5-5/7-7/8--8/12--12/13/12--||------------------------------|
(3:52)|--------------------------0--||--------------------------0--||-10/14-14/12--12/10-10/9--9--||-----------------------------|X2|-8-/12-12/10--10/8--8/7---7--||-----------------------------|
Pre-chorus (4:08)|-3-3-3-3-0-0-0-0-8--8--8--8---||-3-3-3-3-0-0-0-0-8--8--8--8---||-5-5-5-5-2-2-2-2-10-10-10-10--||-5-5-5-5-2-2-2-2-10-10-10-10--|X2|-3-3-3-3-0-0-0-0-8--8--8--8---||-3-3-3-3-0-0-0-0-8--8--8--8---|Nel tuo sfogo sai non sei per niente male, e poi Brilla in lucciole saro' Confuso e debole
Chorus (4:35)|-----------------0--||-----------------0--||-7-7--14-5-5--12-3--||--------------------|X2|-5-5-----3-3-----1--||-0-0-----0-0-----0--|
(4:47)|---------------------------------------------------------||---------------------------------------------------------||-7/9-9/10--10/12-10/14-9-9/12-15-14-14-12-12-10-10-9-15--||---------------------------------------------------------||-5/7-7/8---8/-10-10/12-7-7/10-13-12-12-10-10-8--8--7-13--||---------------------------------------------------------|
(4:59) |-----------------0--||-----------------0--||-7-7--14-5-5--12-3--||--------------------|X2|-5-5-----3-3-----1--||-0-0-----0-0-----0--|
(5:10)|----------------------------------------------||----------------------------------------------||-12/14/15/17/19-17-14-15-14-12-10-10/12-10-9--||----------------------------------------------||-10/12/13/15/17-15-12 13-12-10-8--8-/10-8--7--||----------------------------------------------|
Tap to rate this tab
 
# A B C D E F G H I J K L M N O P Q R S T U V W X Y Z