Verdena - Fuxia tab

|-----12-----------12-----------12-----------12-------||--------12-----------12-----------12-----------12----||-----------12-----------12-----------12--------------||--------------------------------------------------12-| 2x|-----------------------------------------------------||-12-----------12-----------12-----------12-----------|
[riff]
|--------------------0-----------------------0----||--------------------4/^\--------------------4/^\-||-------------------------------------------------||-2--2-2--x-x-2--2-2------2--2-2--x-x-2--2-2------| 2x|-2--2-2--x-x-2--2-2------2--2-2--x-x-2--2-2------||-0--0-0--x-x-0--0-0------0--0-0--x-x-0--0-0------|
|-----------------------------||-----------------------------||-----------------------------||-2---------------------------||-2------------2/14--/15------||-0---------------------------|(let ring)
[end_riff] [verso]
E D G B E G|-----------------------------------------------------------------||-----------------------------------------------------------------||--basso,la chitarra va in feedback-------------------------------||---|-----------------------------------------------------------5-||---V-------------5-5-5-5-5-5-5-5---------2-2-2-2---------------5-||-0(0-0-0-0-0-0-0-----------------3-3-3-3---------0-0-0-0-0)0-0-3-|
1.eroina fertile___ vincerai tu 2.voglio e posso perdere vincerai tu
|-----------------------------------------------------------------||-----------------------------------------------------------------||-----------------7-7-7-7-7-7-7-7---------4-4-4-4-----------------||-2-2-2-2-2-2-2-2-7-7-7-7-7-7-7-7-5-5-5-5-4-4-4-4-5-----5-----5---||-2-2-2-2-2-2-2-2-5-5-5-5-5-5-5-5-5-5-5-5-2-2-2-2-5-----5-----5---||-0-0-0-0-0-0-0-0-----------------3-3-3-3---------3-0-0-3-0-0-3-0-|
1.suicida isterico dove sei? 2.sangue in seno voli via lavami
|-----------------------------------------------------------------||-----------------------------------------------------------------||-----------------7-7-7-7-7-7-7-7---------4-4-4-4-----------------||-2-2-2-2-2-2-2-2-7-7-7-7-7-7-7-7-5-5-5-5-4-4-4-4-5-----5-----5---||-2-2-2-2-2-2-2-2-5-5-5-5-5-5-5-5-5-5-5-5-2-2-2-2-5-----5-----5---||-0-0-0-0-0-0-0-0-----------------3-3-3-3---------3-0-0-3-0-0-3-0-|
1.curami curami adesso no__ 2.curami curami ancora un po'_ [end_verso] [rit]
|----------------------------||----------------------------||-4--4-4-5-5-5---------------||-4--4-4-5-5-5-5-5---------5-||-2--2-2-3-3-3-5-5---------5-||-2--2-2-3-3-3-3-3-3-3-3-3-3-|
io che non so
|----------------------------||----------------------------||-4--4-4-5-5-5---------------||-4--4-4-5-5-5-5-5---------5-||-2--2-2-3-3-3-5-5---------5-||-2--2-2-3-3-3-3-3-3-3-3-3-3-|
più dove andrò
|----------------------------||----------------------------||-4--4-4-5-5-5---------------||-4--4-4-5-5-5-5-5---------5-||-2--2-2-3-3-3-5-5---------5-||-2--2-2-3-3-3-3-3-3-3-3-3-3-|
1.pur se vuoi 2.pur se puoi
|----------------------------||----------------------------||-4--4-4-5-5-5-7-7-7-7-7-7-7-||-4--4-4-5-5-5-7-7-7-7-7-7-7-||-2--2-2-3-3-3-5-5-5-5-5-5-5-||-2--2-2-3-3-3---------------|
ma io non lo so___ dove sei [end_rit] #riff, #verso e #rit come prima e poi: [outro]
|-------------------------------------------------||-------------------------------------------------||-7-7-7-7-7-7-7-7-7-7-7-7-7-7-7-7-7-7-7-7-7-7-7-7-||-7-7-7-7-7-7-7-7-7-7-7-7-7-7-7-7-7-7-7-7-7-7-7-7-||-5-5-5-5-5-5-5-5-5-5-5-5-5-5-5-5-5-5-5-5-5-5-5-5-||-------------------------------------------------|
io non lo so, non lo so___________________ dove sei!
|--------------------0-----------------------0----||--------------------4/^\--------------------4/^\-||-------------------------------------------------||-2--2-2--x-x-2--2-2------2--2-2--x-x-2--2-2------| 8x|-2--2-2--x-x-2--2-2------2--2-2--x-x-2--2-2------||-0--0-0--x-x-0--0-0------0--0-0--x-x-0--0-0------|
dove sei! dove sei!
|-----------------------------||-----------------------------||-----------------------------||-2---------------------------||-2---------------------------||-0---------------------------|(let ring)
Em|-------------------------------------------------||-------------------------------------------------||-------------------------------------------------||-------------------------------------------------| X più volte simile,|-/14-------/15---------\14--------/15----\10-----| rallentando|-(0)---------------------------------------------|
Tap to rate this tab
 
# A B C D E F G H I J K L M N O P Q R S T U V W X Y Z