Verse – Old Guards New Methods tab

-------------------------------------------------------------------------------
			     OLD GUARDS, NEW METHODS - Verse
-------------------------------------------------------------------------------
Band: Verse
Song: Old Guards, New Methods
Album: Aggression (2008)
Tabbed by: brad5992
Email: br.ad@live.com.au 

Tuning: 1/2 Step Down (D# G# C# F# A# D#)

Verse (lol)

------------------------------|------------------------------|------------------------------|------------------------------|------------------------------|------------------------------|--5-5--5-5-5--5-9-9--9-9-9--9-|--4-4--4-4-4--4-4-4--4-4-4--4-|--3-3--3-3-3--3-7-7--7-7-7--7-|--2-2--2-2-2--2-2-2--2-2-2--2-|------------------------------|------------------------------|
------------------------------|--------------------------------|------------------------------|--------------------------------|------------------------------|----------------4-------5-------|--5-5--5-5-5--5-9-9--9-9-9--9-|--4-4--4-4-4--4-4-4--4--5--4--4-|--3-3--3-3-3--3-7-7--7-7-7--7-|--2-2--2-2-2--2-2-2--2--3--2--2-|------------------------------|--------------------------------|PM . .
------------------------------|------------------------------|------------------------------|------------------------------|------------------------------|------------------------------|--5-5--5-5-5--5-9-9--9-9-9--9-|--4-4--4-4-4--4-4-4--4-4-4--4-|--3-3--3-3-3--3-7-7--7-7-7--7-|--2-2--2-2-2--2-2-2--2-2-2--2-|------------------------------|------------------------------|
------------------------------|----------------------------------|------------------------------|----------------------------------|------------------------------|----------------------4-----------|--5-5--5-5-5--5-9-9--9-9-9--9-|--4-4--4-4-4--4-4--4--4-4--4--4---|--3-3--3-3-3--3-7-7--7-7-7--7-|--2-2--2-2-2--2-2--2--2-2--2--2---|------------------------------|----------------------------------|PM . . . .
Chorus
-------------------------------|------------------------------|-------------------------------|------------------------------|--7-7--7-7-7--7-5-5--5-5-7-5-4~|----4-4--4-4--4-4-4--4-4-4--4-|--7-7--7-7-7--7-5-5--5-5-7-5-4~|----4-4--4-4--4-4-4--4-4-4--4-|--5-5--5-5-5--5-3-3--3-3-5-3-2~|----2-2--2-2--2-2-2--2-2-2--2-|-------------------------------|------------------------------|
-------------------------------|------------------------------|-------------------------------|------------------------------|----------------5-5--5-5-7-5-4~|----4-4--4-4--4-4-4--4-4-4--4-|--5-5--5-5-5--5-5-5--5-5-7-5-4~|----4-4--4-4--4-4-4--4-4-4--4-|--5-5--5-5-5--5-3-3--3-3-5-3-2~|----2-2--2-2--2-2-2--2-2-2--2-|--3-3--3-3-3--3----------------|------------------------------|
-------------------------------|------------------------------|-------------------------------|------------------------------|--7-7--7-7-7--7-5-5--5-5-7-5-4~|----4-4--4-4--4-4-4--4-4-4--4-|--7-7--7-7-7--7-5-5--5-5-7-5-4~|----4-4--4-4--4-4-4--4-4-4--4-|--5-5--5-5-5--5-3-3--3-3-5-3-2~|----2-2--2-2--2-2-2--2-2-2--2-|-------------------------------|------------------------------|
-------------------------------|-------------------------------|-------------------------------|-------------------------------|----------------5-5--5-5-7-5-4~|----4-4--4-4--4-4-4--4---------|--5-5--5-5-5--5-5-5--5-5-7-5-4~|----4-4--4-4--4-4-4--4-4--4--4-|--5-5--5-5-5--5-3-3--3-3-5-3-2~|----2-2--2-2--2-2-2--2-2--2--2-|--3-3--3-3-3--3----------------|-------------------------------|PM . . .
Verse x1 Chorus x1 Bridge x4
------------------------------|------------------------------|------------------------------|------------------------------|------------------------------|------------------------------| --5-5--5-5-5--5-5-5--5-5-5--5-|--2-2--2-2-2--2-2-2--2-2-2--2-|--5-5--5-5-5--5-5-5--5-5-5--5-|--2-2--2-2-2--2-2-2--2-2-2--2-|--3-3--3-3-3--3-3-3--3-3-3--3-|--0-0--0-0-0--0-0-0--0-0-0--0-|
Ending (No war) x5
----------------------------------|----------------------------------|----------------------------------|----------------------------------|--4-4-4-4-4-4-4-4-4-4-4-4-4-9-9-9-|--9-5-5-5-5-5-5-5-5-5-5-5-5-5-5-5-|--x-x-x-x-x-x-x-x-x-x-x-x-x-x-x-x-|--x-x-x-x-x-x-x-x-x-x-x-x-x-x-x-x-|--2-2-2-2-2-2-2-2-2-2-2-2-2-7-7-7-|--7-3-3-3-3-3-3-3-3-3-3-3-3-3-3-3-|----------------------------------|----------------------------------|
----------------------------------|----------------------------------|----------------------------------|----------------------------------|--7-7-7-7-7-7-7-7-5-5-5-5-5s7-7s5-|--5s4-4-4-4-4-4-4-4-4-4-4-4-4-4-4-|--x-x-x-x-x-x-x-x-x-x-x-x-x-x-x-x-|--x-x-x-x-x-x-x-x-x-x-x-x-x-x-x-x-|--5-5-5-5-5-5-5-5-3-3-3-3-3s5-5s3-|--3s2-2-2-2-2-2-2-2-2-2-2-2-2-2-2-|----------------------------------|----------------------------------|
End on-------------5~----5~----3~---------
Send me any corrections, suggestions and check my tabs.
Please rate this tab:
x1.0