Vintersorg - Isjungfrun tab

Title: Isjungfrun (Key of G)             E tuning
Author: Vintersorg           
Tabbed By: Dan Mello

Intro Riff: Play 4x----------------------------------------------------------------------------------------------------------------------------------------------------------------------0---------0------9------9-----------9------9------------5--------4-------7----10-----10-----7----10------10-----3-------2-------------------------------------------------------------------
-------------------------|-------------------------|---------0---------0-----|------5---------7-----7--|---3--------5------------|-------------------------|
Riff 1: Play 4x-----------------------------------------------------------------------------------------------------------------------10-------------10--------------------0--------0--------0---10-------------10-----------------5--------4--------5-------8--x--10--11---8--x--10--11---3--------2--------3-------------------------------------------------------------------
-------------|-------------|--------0----|-----7----7--|--5----------|-------------|
Riff 2: Play 4x 1st and 3rd----------------------------------------|-----------------|----------------------------------------|-----------------|-10------10-------6-------6--5--6-------|-8------8------8-|-10------10-------6-------6--5--6-------|-8------8------8-|--8--8-8--8--8-8--4--4-4--4--3--4--4-4--|-6--6-6-6--6-6-6-|----------------------------------------|-----------------|
2nd and 4th-----------------------|-----------------------|--6------8------8------|--6------8------8------|--4--4-4-6--6-6-6--6-6-|-----------------------|
Intro Riff: Play 2x Riff 1: Play 4x Bridge Riff 1: Play 1x Gtr I (tremolo pick throughout) ----------------------------------------------------------- ----------------------------------------------------------- ----------------------------------------------------------- -----------------------------------------------------------
----8--10--11--10--------------8--10--11--10--------------------------------------------------------------------------
Gtr II-----------------------------------------------------------------------------------------------------------------------10------------10-10-8--10-8---------------7-7-7------------10------------10-10-8--10-8---------------7-7-7-------------8-------------8--8-6---8-6---------------5-5-5----------------------------------------------------------------------
Riff 3: Play 4x (tremolo pick throughout) ----------------------------------------------------------- ----------------------------------------------------------- ----------------------------------------------------------- -----------------------------------------------------------
--8--10--11--10----8--/13--11--10----8--10--11--10--------------------------------------------------------------------
--------------------------|--------------------------|--------------------------|--10-101010-101011-111110-|---8--8-8-8--8-8-9--9-9-8-|--------------------------|
Bridge Riff 2: Play 2x Very Fast and Difficult! Play Slowly and work up to speed! Listening to song helps with noting the rhythm here. ----------------------------------------------------------- ----------------------------------------------------------- -----------------------------------------------------------
-10--10----10----10--10-10----10----10--10--8----8----8--8---888-88888-88888-888-88-88888-88888-888-88866666666666666------------------------------------------------------------
--------------------|--------------------|--------------------|--7----7----6--6----|
665555554444444444--|--------------------|
Riff 3: Play 2x Riff 2: Play 4x Riff 1: Play 4x
Little Two note thing at the end.-------------------4-4-----4-4-----2-2-----0-0--
Intro Riff: Play 1x Enjoy.
Tap to rate this tab
 
# A B C D E F G H I J K L M N O P Q R S T U V W X Y Z