Vio-lence - World In A World tab

Title: World in a World
Artist: Vio-Lence (www.vio-lence.com)
Album: Oppressing the Masses
Year: 1990

Sorry if it looks a bit messy, I did this with my lead guitarist in a hurry.
Aggain, any questions email to daveluffsgab@hotmail.com


-------------|-------------------------------------------------|-------------|-------------------------------------------------|-------------|-------------------------------------------------|-------------|-------------------------------------------------|-8----5-\----|-------------------------------------------------|-6----3-\----|-0-1-0-1-4-1-0-1-0-1-0-1-4-1-0-1-0-1-0-1-4-1-0-1-|
--------------------|--------------------|--------------------|--------------6-3---|--------5---------5-|-0-4-0-----0--------|
-----------------------------------------------------|-----------------------------------------------------|-----------------------------------------------------|-----------------------------------------------------|--7-8-7-8-11-8-7-8-7-8-7-8-11-8-7-8-7-8-7-8-11-8-7-8-|-----------------------------------------------------|
------------------------|------------------------|---------------10---7---|----------9-----------9-|--7-11--7---11----------|------------------------|
| | |
------------------------|------------------------|----------------13-10---|----------12----------12|-10-14-10----14---------|------------------------|
|-----------------------------------------------------------------||-----------------------------------------------------------------||-----------------------------------------------------------------||-9-10-9-10-13-10-9-10-9-10-9-10-13-10-9-10-9-10-9-10-13-10-9-10--||-----------------------------------------------------------------||-----------------------------------------------------------------|
| | |
|-----------------------------------------------------------------||-----------------------------------------------------------------||-9-10-9-10-13-10-9-10-9-10-9-10-13-10-9-10-9-10-9-10-13-10-9-10--||-----------------------------------------------------------------||-----------------------------------------------------------------||-----------------------------------------------------------------|
-----------------------------|-----------------------------|-------9-10-9----13-(14)-----|--9-10-----------------------|-----------------------------|-----------------------------|
| |
--------------12-(13)--13-13-|------9-(10)-----------------|-9-10------------------------|-----------------------------|-----------------------------|-----------------------------|
|----------------------------------------------------||----------------------------------------------------||----------------------------------------------------||----------------------------------------------------||----------------------------------------------------||-0-1-0-1-4-1-0-1-0-1-0-1-4-1-0-1-0-1-0-1-4-1-0-1-0--|
--------------------|--------------------|--------------------|--------------6-3---|--------5---------5-|-0-4-0-----0--------|
----------------------------------------------------------------------------|----------------------------------------------------------------------------|----------------------------------------------------------------------------|----------------------------------------------------7---7----7----7----7----|----------------------------------------------------5---5----5----5----5----|0-1-0-1-4-1-0-1-0-1-0-1-4-1-0-1-0-1-0-1-4-1-0-1-0---------------------------|
3x-----------------------------------------------------------------------|-----------------------------------------------------------------------|-----------------------------------------------------------------------|-----------------------------------------------------------------------|----------------------------------------------------3-1-1-1-1-1-1--1-0-|--0-0-0-1-3-1-3-3-0-0-0-1-3-1-3-1-0-0-0-1-3-1-3-3-0--------------------|
-----------------------------------------------------------------|-----------------------------------------------------------------|-----------------------------------------------------------------|---------------------------------------------------7-----------7-|---------------------------------------------------5--5--5--5--5-|--0-0-0-1-3-1-3-3-0-0-0-1-3-1-3-1-0-0-0-1-3-1-3-3----------------|
3x-----------------------------------------------------------------------|-----------------------------------------------------------------------|-----------------------------------------------------------------------|-----------------------------------------------------------------------|----------------------------------------------------3-1-1-1-1-1-1--1-0-|--0-0-0-1-3-1-3-3-0-0-0-1-3-1-3-1-0-0-0-1-3-1-3-3-0--------------------|
-----------------------------------------------------------------|-----------------------------------------------------------------|-----------------------------------------------------------------|---------------------------------------------------7-----------7-|---------------------------------------------------5--5--5--5--5-|--0-0-0-1-3-1-3-3-0-0-0-1-3-1-3-1-0-0-0-1-3-1-3-3----------------|
---------------------------------------------------|---------------------------------------------------|---------------------------------------------------|---------------------------------------------------|---------------------------------------------------|-0-1-0-1-4-1-0-1-0-1-0-1-4-1-0-1-0-1-0-1-4-1-0-1-0-|
--------------------|--------------------|--------------------|--------------6-3---|--------5---------5-|-0-4-0-----0--------|
|-------------------------------------------------------||-------------------------------------------------------||-------------------------------------------------------||-------------------------------------------------------||--7-8-7-8-11-8-7-8-7-8-7-8-11-8-7-8-7-8-7-8-11-8-7-8---||-------------------------------------------------------|
| | |
|-----------------------------------------------------||-----------------------------------------------------||-----------------------------------------------------||-----------------------------------------------------||--2-3-2-3-6-3-2-3-2-3-2-3-6-3-2-3-2-3-2-3-6-3-2-3----||-----------------------------------------------------|
------------------------|------------------------|---------------10---7---|----------9-----------9-|--7-11--7---11----------|------------------------|
| | |
------------------------|------------------------|----------------6---3---|----------4-----------5-|--2--6--2----6----------|------------------------|
3x-----------------------------------------------------------------------|-----------------------------------------------------------------------|-----------------------------------------------------------------------|-----------------------------------------------------------------------|----------------------------------------------------3-1-1-1-1-1-1--1-0-|--0-0-0-1-3-1-3-3-0-0-0-1-3-1-3-1-0-0-0-1-3-1-3-3-0--------------------|
--------------------------------------------------------------------|--------------------------------------------------------------------|--------------------------------------------------------------------|---------------------------------------------------7--7--7--7--8--9-|---------------------------------------------------5--5--5--5--6--7-|--0-0-0-1-3-1-3-3-0-0-0-1-3-1-3-1-0-0-0-1-3-1-3-3-------------------|
-----------------------------------------------------|-----------------------------------------------------|-----------------------------------------------------|-0-2-0-2-0-2-0-2-0-2-0-2-0-2-0-2-0-2-0-2-0-2-0-2-0-2-|
4x-----------------------------------------------------------------|-----------------------------------------------------------------|-----------------------------------------------------------------|-------------------------------5---------------------------------|-2-----------------------------3---------------------------------|-0-2-0-2-0-2-0-2-0-2-0-2-0-2-0---0-2-0-2-0-2-0-2-0-2-0-2-0-2-0---|
----------------------------------------------------------------------|----------------------------------------------------------------------|----------------------------------------------------------------------|---8-5-4-7-4-3-6---8-5-4-7-4-3-6----8-5-4-7-4-3-6---------------------|------------------------------------------------------3-1-1-1-1--1-0--|-0---------------0----------------0-----------------0-----------------|
----------------------------------------------------------------------|----------------------------------------------------------------------|----------------------------------------------------------------------|---8-5-4-7-4-3-6---8-5-4-7-4-3-6----8-5-4-7-4-3-6---------------------|------------------------------------------------------3-1-1-1-1--3\---|-0---------------0----------------0-----------------0------------3\---|
----------------------------------------------------------------------|----------------------------------------------------------------------|----------------------------------------------------------------------|---8-5-4-7-4-3-6---8-5-4-7-4-3-6----8-5-4-7-4-3-6---------------------|------------------------------------------------------3-1-1-1-1--1-0--|-0---------------0----------------0-----------------0-----------------|
----------------------------------------------------------------------|----------------------------------------------------------------------|----------------------------------------------------------------------|---8-5-4-7-4-3-6---8-5-4-7-4-3-6----8-5-4-7-4-3-6-------5-5-5---------|---------------------------------------------------5-5--3-3-3---------|-0---------------0----------------0----------------3-3----------------|
gtr 1|--------------------------------------------------------------||--------------------------------------------------------------||--------------------------------------------------------------||---4---5---4---5---4---5----4/5--4---5--4---5---4---5---------||----------------------------2/3---------------------------8-7-||-----2---2---2---2---2---2---------2---2---2---2---2---2--6-5-|
| || || ||gtr 2 ||--------------------------------------------------------------||--------------------------------------------------------------||--------------------------------------------------------------||----------------------------4-5-------------------------------||-4--------------------------2-3---------------------------8-7-||-2--------------------------------------------------------6-5-|
gtrs 1 & 2--------------------------------------------------------------|--------------------------------------------------------------|--------------------------------------------------------------|---4---5---4---5---4---5----4/5--4---5--4---5---4---5---------|----------------------------2/3---------------------------8-7-|-----2---2---2---2---2---2---------2---2---2---2---2---2--6-5-|
gtrs 1 & 2-------------------------------------------------------------|-------------------------------------------------------------|-------------------------------------------------------------|---4---5---4---5---4---5----4/5--4---5--4---5---4---5--------|----------------------------2/3---------------------------5--|-----2---2---2---2---2---2---------2---2---2---2---2---2--3--|
----------------------------------------------------------------|----------------------------------------------------------------|----------------------------------------------------------------|----------------------------------------------------------------|-----------2-4-5------------2-4-5-----------2-4-5---5---7-7--5\-|-2-3-2-3-4--------2-3-2-3-4-------2-3-2-3-4---------3---5-5--3\-|
----------------------------------------------------------------|----------------------------------------------------------------|----------------------------------------------------------------|---------------------------------------------------9--7-7-7--5--|-----------2-4-5------------2-4-5-----------2-4-5--7--5-5-5--3--|-2-3-2-3-4--------2-3-2-3-4-------2-3-2-3-4---------------------|
----------------------------------------------------------------|----------------------------------------------------------------|----------------------------------------------------------------|----------------------------------------------------------------|-----------2-4-5------------2-4-5-----------2-4-5---5---7-7--5--|-2-3-2-3-4--------2-3-2-3-4-------2-3-2-3-4---------3---5-5--3--|
----------------------------------------------------------------|----------------------------------------------------------------|----------------------------------------------------------------|---------------------------------------------------5--7--9--10--|-----------2-4-5------------2-4-5-----------2-4-5--3--5--7--8---|-2-3-2-3-4--------2-3-2-3-4-------2-3-2-3-4---------------------|
gtrs 1 & 2--------------------------------------------------------------|--------------------------------------------------------------|--------------------------------------------------------------|---4---5---4---5---4---5----4/5--4---5--4---5---4---5---------|----------------------------2/3---------------------------8-7-|-----2---2---2---2---2---2---------2---2---2---2---2---2--6-5-|
gtrs 1 & 2-------------------------------------------------------------|-------------------------------------------------------------|-------------------------------------------------------------|---4---5---4---5---4---5----4/5--4---5--4---5---4---5--------|----------------------------2/3---------------------------5--|-----2---2---2---2---2---2---------2---2---2---2---2---2--3--|
--------------------------------------------------------------------|--------------------------------------------------------------------|--------------------------------------------------------------------|--------------------------------------------------------------------|-------------------------------------------------------3---5-5-5-8\-|-0-0-0-0-0-0-0-0-0-0-0-0-0-0-0-0-0-0-0-0-0-0-0-0-0-0-0-1---3-3-3-6\-|
-----------------------------------------------------------------------------|-----------------------------------------------------------------------------|-----------------------------------------------------------------------------|-------------------------------------------------------9----7-7-7-5\---------|-------------------------------------------------------7----5-5-5-3\---------|-0-0-0-0-0-0-0-0-0-0-0-0-0-0-0-0-0-0-0-0-0-0-0-0-0-0-0-----------------------|
--------------------------------------------------------------------|--------------------------------------------------------------------|--------------------------------------------------------------------|--------------------------------------------------------------------|-------------------------------------------------------3---5-5-5-8\-|-0-0-0-0-0-0-0-0-0-0-0-0-0-0-0-0-0-0-0-0-0-0-0-0-0-0-0-1---3-3-3-6\-|
---------------------------------------------------------------------|---------------------------------------------------------------------|---------------------------------------------------------------------|-------------------------------------------------------9-9-9--7-7----|-------------------------------------------------------7-7-7--5-5-4--|-0-0-0-0-0-0-0-0-0-0-0-0-0-0-0-0-0-0-0-0-0-0-0-0-0-0-0---------------|
----------------------------------------------------------------|----------------------------------------------------------------|----------------------------------------------------------------|----------------------------------------------------------------|-----------2-4-5------------2-4-5-----------2-4-5---5---7-7--5\-|-2-3-2-3-4--------2-3-2-3-4-------2-3-2-3-4---------3---5-5--3\-|
----------------------------------------------------------------|----------------------------------------------------------------|----------------------------------------------------------------|---------------------------------------------------9--7-7-7--5--|-----------2-4-5------------2-4-5-----------2-4-5--7--5-5-5--3--|-2-3-2-3-4--------2-3-2-3-4-------2-3-2-3-4---------------------|
----------------------------------------------------------------|----------------------------------------------------------------|----------------------------------------------------------------|----------------------------------------------------------------|-----------2-4-5------------2-4-5-----------2-4-5---5---7-7--5--|-2-3-2-3-4--------2-3-2-3-4-------2-3-2-3-4---------3---5-5--3--|
----------------------------------------------------------------|----------------------------------------------------------------|----------------------------------------------------------------|---------------------------------------------------5--7--9--10--|-----------2-4-5------------2-4-5-----------2-4-5--3--5--7--8---|-2-3-2-3-4--------2-3-2-3-4-------2-3-2-3-4---------------------|
gtrs 1 & 2|--------------------------------------------------------------||--------------------------------------------------------------||--------------------------------------------------------------||---4---5---4---5---4---5----4/5--4---5--4---5---4---5---------||----------------------------2/3---------------------------8-7-||-----2---2---2---2---2---2---------2---2---2---2---2---2--6-5-|
gtrs 1 & 2 contd 2x-------------------------------------------------------------|-------------------------------------------------------------|-------------------------------------------------------------|---4---5---4---5---4---5----4/5--4---5--4---5---4---5--------|----------------------------2/3---------------------------5--|-----2---2---2---2---2---2---------2---2---2---2---2---2--3--|
----------------------------------------------------------------------|----------------------------------------------------------------------|----------------------------------------------------------------------|---8-5-4-7-4-3-6---8-5-4-7-4-3-6----8-5-4-7-4-3-6---------------------|------------------------------------------------------3-1-1-1-1--1-0--|-0---------------0----------------0-----------------0-----------------|
----------------------------------------------------------------------|----------------------------------------------------------------------|----------------------------------------------------------------------|---8-5-4-7-4-3-6---8-5-4-7-4-3-6----8-5-4-7-4-3-6---------------------|------------------------------------------------------3-1-1-1-1--3\---|-0---------------0----------------0-----------------0------------3\---|
----------------------------------------------------------------------|----------------------------------------------------------------------|----------------------------------------------------------------------|---8-5-4-7-4-3-6---8-5-4-7-4-3-6----8-5-4-7-4-3-6---------------------|------------------------------------------------------3-1-1-1-1--1-0--|-0---------------0----------------0-----------------0-----------------|
----------------------------------------------------------------------||----------------------------------------------------------------------||----------------------------------------------------------------------||---8-5-4-7-4-3-6---8-5-4-7-4-3-6----8-5-4-7-4-3-6-------5-5-5---------||---------------------------------------------------5-5--3-3-3---4-----||-0---------------0----------------0----------------3-3----------2-----||
Tap to rate this tab
 
# A B C D E F G H I J K L M N O P Q R S T U V W X Y Z