Virgin Steele – Blood And Gasoline tab

                               Blood & Gasoline                                 


Dist. Guitar 1
                                                                      
D#||---------------------|---------------------|---------------------|A#||---------5------7----|--8------------------|----------------5----|F#||--4------------------|---------7------4----|--7------4-----------|C#||---------------------|---------------------|---------------------|G#||---------------------|---------------------|---------------------|D#||---------------------|---------------------|---------------------|
---------------------|---------------------|---------------------|---------------------|---------5------7----|--8------------------|--7------------------|--4------------------|---------7------4----|---------7------4----|---------------------|---------------------|---------------------|---------------------|---------------------|---------------------|---------------------|---------------------|
---------------------|---------------------|---------------------|--7------------------|---------------------|---------5------7----|---------7-----------|--6------7-----------|--4------------------|----------------7----|----------------7----|---------------------|---------------------|---------------------|---------------------|---------------------|---------------------|---------------------|
---------------------|---------------------|---------------------|--8------------------|----------------5----|---------------------|---------7------4----|--7------4-----------|--7------------------|---------------------|---------------------|---------7------4----|---------------------|---------------------|---------------------|---------------------|---------------------|---------------------|
---------------------|---------------------|---------------------|---------5------7----|--8------------------|--7------------------|--4------------------|---------7------4----|---------7-----------|---------------------|---------------------|----------------7----|---------------------|---------------------|---------------------|---------------------|---------------------|---------------------|
---------------------|----------------2----|--3------------------|---------------------|---------5-----------|---------3-----------|--6------7------9----|--5------------------|----------------5----|---------------------|---------------------|---------------------|---------------------|---------------------|---------------------|---------------------|---------------------|---------------------|
--5------3------2----|-------------------|--5------3------2----|---------------------|--3----------------|---------------------|---------------------|-------------------|---------------------|---------------------|-------------------|---------------------|---------------------|-------------------|---------------------|---------------------|-------------------|---------------------|
---------2------3----|--2------------------|--9----------------|--5------------------|---------5------2----|-------------------|---------------------|---------------------|-------------------|---------------------|---------------------|-------------------|---------------------|---------------------|-------------------|---------------------|---------------------|-------------------|
---------------------|------------------|---------------------|---------------------|------------------|---------------------|---------------------|------------------|---------------------|--9----x--7----------|------------------|--9----x--7----------|--7----x--5----------|------------------|--7----x--5----------|---------------------|------------------|---------------------|
--------------------------|---------------------|------------------|--------------------------|---------------------|------------------|--------------------------|--9------------------|------------------|--------------------------|--7----x--7----------|------------------|--7--7--7--7--7--7--7--7--|-------x--5----------|------------------|--------------------------|---------------------|------------------|
---------------------|---------------------|---------------------|---------------------|---------------------|---------------------|---------------------|---------------------|---------------------|--9----x--7----------|--4------5-----------|--9----x--7----------|--7----x--5----------|--5------5------5----|--7----x--5----------|---------------------|---------------------|---------------------|
------------------|---------------------|--------------------------|------------------|---------------------|--------------------------|------------------|---------------------|--------------------------|------------------|--9----x--7----------|--------------------------|------------------|--7----x--5----------|--7--7--7--7--7--7--7--7--|------------------|---------------------|--------------------------|
---------------------|------------------|---------------------|---------------------|------------------|---------------------|--9------------------|------------------|---------------------|--7----x--7----------|------------------|--9----x--7----------|-------x--5----------|------------------|--7----x--5----------|---------------------|------------------|---------------------|
---------------------|-------------------|------------------|---------------------|-------------------|------------------|---------------------|--9----------------|------------------|--4------5-----------|--9----------------|------------------|--5------5------5----|--7----------------|------------------|---------------------|-------------------|------------------|
-------------------|------------------|-------------------|------------------|-------------------|------------------|-------------------|------------------|-------------------|------------------|--2----------------|------------------|--5----------------|------------------|--2----------------|------------------|--5----------------|------------------|--0----------------|------------------|--3----------------|------------------|-------------------|------------------|
-------------------|-------------------|-------------------|------------------|-------------------|-------------------|-------------------|------------------|--5----------------|--7----------------|--9----------------|------------------|--5----------------|--7----------------|--9----------------|------------------|--3----------------|--5----------------|--7----------------|------------------|-------------------|-------------------|-------------------|------------------|
-------------------|------------------|-------------------|------------------|-------------------|------------------|-------------------|------------------|-------------------|------------------|--2----------------|------------------|--5----------------|------------------|--2----------------|------------------|--5----------------|------------------|--0----------------|------------------|--3----------------|------------------|-------------------|------------------|
-------------------|-------------------|---------------------|-------------------|-------------------|---------------------|--5----------------|--7----------------|---------------------|--5----------------|--7----------------|--9----x--7----------|--3----------------|--5----------------|--7----x--5----------|-------------------|-------------------|---------------------|
------------------|---------------------|--------------------------|------------------|---------------------|--------------------------|------------------|---------------------|--------------------------|------------------|--9----x--7----------|--------------------------|------------------|--7----x--5----------|--7--7--7--7--7--7--7--7--|------------------|---------------------|--------------------------|
---------------------|------------------|---------------------|---------------------|------------------|---------------------|--9------------------|------------------|---------------------|--7----x--7----------|------------------|--9----x--7----------|-------x--5----------|------------------|--7----x--5----------|---------------------|------------------|---------------------|
---------------------|---------------------|------------------|---------------------|---------------------|------------------|---------------------|---------------------|------------------|--4------5-----------|--9----x--7----------|------------------|--5------5------5----|--7----x--5----------|------------------|---------------------|---------------------|------------------|
---------------------|--------------------------|---------------------|---------------------|--------------------------|---------------------|---------------------|--------------------------|--9------------------|--9----x--7----------|--------------------------|--7----x--7----------|--7----x--5----------|--7--7--7--7--7--7--7--7--|-------x--5----------|---------------------|--------------------------|---------------------|
------------------|---------------------|---------------------|------------------|---------------------|---------------------|------------------|---------------------|---------------------|------------------|--9----x--7----------|--4------5-----------|------------------|--7----x--5----------|--5------5------5----|------------------|---------------------|---------------------|
---------------------|------------------|---------------------|---------------------|------------------|---------------------|---------------------|------------------|---------------------|--9----x--7----------|------------------|--9----x--7----------|--7----x--5----------|------------------|--7----x--5----------|---------------------|------------------|---------------------|
--------------------------|---------------------|------------------|--------------------------|---------------------|------------------|--------------------------|--9------------------|------------------|--------------------------|--7----x--7----------|------------------|--7--7--7--7--7--7--7--7--|-------x--5----------|------------------|--------------------------|---------------------|------------------|
---------------------|---------------------|-------------------|---------------------|---------------------|-------------------|---------------------|---------------------|--9----------------|--9----x--7----------|--4------5-----------|--9----------------|--7----x--5----------|--5------5------5----|--7----------------|---------------------|---------------------|-------------------|
------------------|-------------------|------------------|-------------------|------------------|-------------------|------------------|-------------------|------------------|-------------------|------------------|--2----------------|------------------|--5----------------|------------------|--2----------------|------------------|--5----------------|------------------|--0----------------|------------------|--3----------------|------------------|-------------------|
------------------|-------------------|-------------------|-------------------|------------------|-------------------|-------------------|-------------------|------------------|--5----------------|--7----------------|--9----------------|------------------|--5----------------|--7----------------|--9----------------|------------------|--3----------------|--5----------------|--7----------------|------------------|-------------------|-------------------|-------------------|
------------------|-------------------|------------------|-------------------|------------------|-------------------|------------------|-------------------|------------------|-------------------|------------------|--2----------------|------------------|--5----------------|------------------|--2----------------|------------------|--5----------------|------------------|--0----------------|------------------|--3----------------|------------------|-------------------|
------------------|-------------------|-------------------|-------------------|------------------|-------------------|-------------------|-------------------|------------------|--5----------------|--7----------------|--9----------------|------------------|--5----------------|--7----------------|--9----------------|------------------|--3----------------|--5----------------|--7----------------|------------------|-------------------|-------------------|-------------------|
------------------|-------------------|-------------------|-------------------|------------------|-------------------|-------------------|-------------------|------------------|-------------------|--7----------------|-------------------|------------------|--5----------------|--7----------------|--7----------------|------------------|--5----------------|--5----------------|--7----------------|------------------|--3----------------|-------------------|--5----------------|
-------------------|-------------------|-------------------|-------------------|-------------------|-------------------|-------------------|-------------------|--9----------------|-------------------|--7----------------|-------------------|--9----------------|--5----------------|--7----------------|--7----------------|--7----------------|--5----------------|--5----------------|--7----------------|-------------------|--3----------------|-------------------|--5----------------|
------------------|-------------------|-------------------|-------------------|------------------|-------------------|-------------------|-------------------|------------------|-------------------|--7----------------|-------------------|------------------|--5----------------|--7----------------|--7----------------|------------------|--5----------------|--5----------------|--7----------------|------------------|--3----------------|-------------------|--5----------------|
-------------------|-------------------|-------------------|-------------------|-------------------|-------------------|-------------------|-------------------|--9----------------|-------------------|--7----------------|-------------------|--9----------------|--5----------------|--7----------------|--7----------------|--7----------------|--5----------------|--5----------------|--7----------------|-------------------|--3----------------|-------------------|--5----------------|
------------------|-------------------|-------------------|------------------|-------------------|-------------------|------------------|--2----------------|--4----------------|------------------|--2----------------|--4----------------|------------------|--0----------------|--2----------------|------------------|-------------------|-------------------|
----------------------|------------------|----------------------|------------------|----------------------|------------------|--14------------14----|------------------|----------------------|------------------|----------------------|------------------|
----------------------------------------|--------------------|----------------------------------------|--------------------|--------12----14----12----14----12h-14--|--12----------------|--14------------------------------------|--------------------|----------------------------------------|--------------------|----------------------------------------|--------------------|
-----------------12-15p12-------|-------------------------------|--15b---------15----------15p12-|-----------12---------8p-7h-8--|--------------------------------|--14p12h14----14---------------|--------------------------------|-------------------------------|--------------------------------|-------------------------------|--------------------------------|-------------------------------|
-------------------------|---------------------|--7----------------------|---------------------|-----7-------------------|---------------------|--------5--7r------5--7--|--7r--5h7------------|----------------7--------|---------------------|-------------------------|---------------------|
----------------------------------|------------------------------------|--------------3-5-3---------------|------3h5h7p5p3-7p5p3h5p3-8h12p8h10-|--------2-4-5-------5-4-2-------2-|--4-5-------------------------------|--2-4-5-------------------2-4-5---|------------------------------------|----------------------------------|------------------------------------|----------------------------------|------------------------------------|
--------------------------------------|--------------------------|--8h12p8h10p8-7h8p7p5-7p5p3-5p3-7p5p3-|--5p3p1h3-----------------|--------------------------------------|----------4p-2p0-4--------|--------------------------------------|--------------------------|--------------------------------------|--------------------------|--------------------------------------|--------------------------|
-----------------12-15p12-15p12-|--------------------------------------------|--15b---------15----------------|--12h15-12h15-------------------12h15-12----|--------------------------------|--------------12h14-------12h14-------------|--------------------------------|--------------------12h14-------------------|--------------------------------|--------------------------------------------|--------------------------------|--------------------------------------------|
------12--14--15--17--15--17--|--19----------------|------------------------------|--------------------|------------------------------|--------------------|------------------------------|--------------------|------------------------------|--------------------|------------------------------|--------------------|
----------19--------------19------|--19--------------19--------------|--16h-17------17--16h-17------17--|------17p-16h-17------17p-16h-17--|----------------------------------|----------------------------------|----------------------------------|----------------------------------|----------------------------------|----------------------------------|----------------------------------|----------------------------------|
--18----17h18p17p15-13h15p13p11-------------|--8p6--------------------------|--------------------------------15p13p11p10-|------10p8---------------------|--------------------------------------------|-----------10p8----------------|--------------------------------------------|----------------12p10p8~-------|--------------------------------------------|-------------------------------|--------------------------------------------|-------------------------------|
---------12-------------12------|---------12-------------12------|--9h-10------10--9h-10------10--|--9h-10------10--9h-10------10--|--------------------------------|--------------------------------|--------------------------------|--------------------------------|--------------------------------|--------------------------------|--------------------------------|--------------------------------|
--17h18p17--15--18p-17p-15--18p-17p-15--18p-17p-15--|----------------------------------------------------|----------------------------------------------------|----------------------------------------------------|----------------------------------------------------|----------------------------------------------------|
--18p-17p-15--18p-17p-15------------|--16------16h18-19----18h19p18-16----|--------------------------16~-------|----------------------------------19-|------------------------------------|-------------------------------------|------------------------------------|-------------------------------------|------------------------------------|-------------------------------------|------------------------------------|-------------------------------------|
--16------------------------------------------|-----19-18-16-19-18-16------------------------|-----------------------18-16--15h16p15--------|---------------------------------------18-----|----------------------------------------------|----------------------------------------------|
--17p-15p-13--17p-15p-13--17p-15p-13--17p-15p-13--|--------------------------------------------------|--------------------------------------------------|--------------------------------------------------|--------------------------------------------------|--------------------------------------------------|
--17p-15p-13--17p-15p-13--17p-15p-13--17p-15p-13--|--------------------------------------------------|--------------------------------------------------|--------------------------------------------------|--------------------------------------------------|--------------------------------------------------|
--20b-------20----19----18----17----|------------------------------------|------------------------------------|------------------------------------|------------------------------------|------------------------------------|
--18----19---17-18-17-------------------------|------------------|----------------------20-18-17----------------|------------------|-------------------------------19-17-15-17-15-|------------------|----------------------------------------------|------------------|----------------------------------------------|------------------|----------------------------------------------|------------------|
------------------|------------------|------------------|-------------------|------------------|------------------|------------------|-------------------|------------------|------------------|------------------|-------------------|------------------|------------------|------------------|--5----------------|------------------|------------------|------------------|--5----------------|------------------|------------------|------------------|--3----------------|
-------------------|-------------------|-------------------|-------------------|-------------------|-------------------|-------------------|-------------------|--7----------------|-------------------|--9----------------|-------------------|--7----------------|--7----------------|--9----------------|--5----------------|--5----------------|--7----------------|--7----------------|--5----------------|-------------------|--5----------------|-------------------|--3----------------|
-------------------|-------------------|------------------|-------------------|-------------------|-------------------|------------------|-------------------|--7----------------|-------------------|------------------|-------------------|--7----------------|--7----------------|------------------|--5----------------|--5----------------|--7----------------|------------------|--5----------------|-------------------|--5----------------|------------------|--3----------------|
-------------------|-------------------|-------------------|-------------------|-------------------|-------------------|-------------------|-------------------|--7----------------|-------------------|--9----------------|-------------------|--7----------------|--7----------------|--9----------------|--5----------------|--5----------------|--7----------------|--7----------------|--5----------------|-------------------|--5----------------|-------------------|--3----------------|
-------------------|-------------------|------------------|-------------------|-------------------|------------------|--7----------------|-------------------|------------------|--7----------------|--7----------------|------------------|--5----------------|--7----------------|------------------|-------------------|--5----------------|------------------|
---------------------|--9----------------|---------------------|--7------------------|-------------------|---------------------|---------9------6----|-------------------|---------------------|---------------------|-------------------|--9----x--7----------|---------------------|-------------------|--7----x--5----------|---------------------|-------------------|---------------------|
------------------|---------------------|--------------------------|------------------|---------------------|--------------------------|------------------|---------------------|--------------------------|------------------|--9----x--7----------|--------------------------|------------------|--7----x--5----------|--7--7--7--7--7--7--7--7--|------------------|---------------------|--------------------------|
---------------------|------------------|---------------------|---------------------|------------------|---------------------|--9------------------|------------------|---------------------|--7----x--7----------|------------------|--9----x--7----------|-------x--5----------|------------------|--7----x--5----------|---------------------|------------------|---------------------|
---------------------|---------------------|------------------|---------------------|---------------------|------------------|---------------------|---------------------|------------------|--4------5-----------|--9----x--7----------|------------------|--5------5------5----|--7----x--5----------|------------------|---------------------|---------------------|------------------|
---------------------|--------------------------|---------------------|---------------------|--------------------------|---------------------|---------------------|--------------------------|--9------------------|--9----x--7----------|--------------------------|--7----x--7----------|--7----x--5----------|--7--7--7--7--7--7--7--7--|-------x--5----------|---------------------|--------------------------|---------------------|
------------------|---------------------|---------------------|------------------|---------------------|---------------------|------------------|---------------------|---------------------|------------------|--9----x--7----------|--4------5-----------|------------------|--7----x--5----------|--5------5------5----|------------------|---------------------|---------------------|
-------------------|------------------|-------------------|------------------|-------------------|------------------|-------------------|------------------|--9----------------|------------------|-------------------|------------------|--9----------------|------------------|--5----------------|------------------|--7----------------|------------------|--5----------------|------------------|-------------------|------------------|--3----------------|------------------|
-------------------|------------------|-------------------|-------------------|-------------------|------------------|-------------------|-------------------|--2----------------|------------------|--5----------------|--7----------------|--2----------------|------------------|--5----------------|--7----------------|--0----------------|------------------|--3----------------|--5----------------|-------------------|------------------|-------------------|-------------------|
-------------------|------------------|-------------------|------------------|-------------------|------------------|-------------------|------------------|--9----------------|------------------|-------------------|------------------|--9----------------|------------------|--5----------------|------------------|--7----------------|------------------|--5----------------|------------------|-------------------|------------------|--3----------------|------------------|
-------------------|------------------|-------------------|-------------------|-------------------|------------------|-------------------|-------------------|--2----------------|------------------|--5----------------|--7----------------|--2----------------|------------------|--5----------------|--7----------------|--0----------------|------------------|--3----------------|--5----------------|-------------------|------------------|-------------------|-------------------|
-------------------|------------------|-------------------|------------------|-------------------|------------------|-------------------|------------------|--9----------------|------------------|-------------------|------------------|--9----------------|------------------|--5----------------|------------------|--7----------------|------------------|--5----------------|------------------|-------------------|------------------|--3----------------|------------------|
-------------------|------------------|-------------------|------------------|-------------------|------------------|-------------------|------------------|--5----------------|------------------|--7----------------|------------------|--5----------------|------------------|--7----------------|------------------|--3----------------|------------------|--5----------------|------------------|-------------------|------------------|-------------------|------------------|
-------------------|------------------|-------------------|------------------|-------------------|------------------|-------------------|------------------|--9----------------|------------------|-------------------|------------------|--9----------------|------------------|--5----------------|------------------|--7----------------|------------------|--5----------------|------------------|-------------------|------------------|--3----------------|------------------|
-------------------|------------------|-------------------|------------------|-------------------|------------------|-------------------|------------------|--5----------------|------------------|--7----------------|------------------|--5----------------|------------------|--7----------------|------------------|--3----------------|------------------|--5----------------|------------------|-------------------|------------------|-------------------|------------------|
---------------------|---------------------|---------------------|---------5------7----|--8------------------|----------------5----|--4------------------|---------7------4----|--7------4-----------|---------------------|---------------------|---------------------|---------------------|---------------------|---------------------|---------------------|---------------------|---------------------|
---------------------|---------------------|---------------------|---------------------|---------5------7----|--8------------------|--7------------------|--4------------------|---------7------4----|---------7------4----|---------------------|---------------------|---------------------|---------------------|---------------------|---------------------|---------------------|---------------------|
---------------------|---------------------|----------------2----|--7------------------|---------------------|---------5-----------|---------7-----------|--6------7------9----|--5------------------|----------------7----|---------------------|---------------------|---------------------|---------------------|---------------------|---------------------|---------------------|---------------------|
--3----------------|----------------3----|--9----------------|-------------------|---------6-----------|-------------------|-------------------|--6------------------|-------------------|-------------------|---------------------|-------------------|-------------------|---------------------|-------------------|-------------------|---------------------|-------------------|
----------------0----|--5----------------|-------------------|---------3-----------|-------------------|-------------------|--3------------------|-------------------|-------------------|---------------------|-------------------|-------------------|---------------------|-------------------|-------------------|---------------------|-------------------|--2----------------|
-------------------|-------------------|-------------------|------------------|-------------------|-------------------|-------------------|------------------|-------------------|-------------------|-------------------|------------------|-------------------|-------------------|-------------------|------------------|-------------------|--2----------------|--0----------------|------------------|--3----------------|-------------------|-------------------|------------------|
-------------------|----------------------|-------------------|-------------------|----------------------|-------------------|-------------------|----------------------|-------------------|-------------------|-----------------4----|--2----------------|--3----------------|--5----2----5---------|--2----------------|-------------------|----------------------|--0----------------|
------------------|------------------|------------------||------------------|------------------|------------------||------------------|------------------|------------------||------------------|------------------|------------------||------------------|------------------|------------------||------------------|------------------|------------------||
Please rate this tab:
x1.0