Vital Remains - Forever Underground tab

Keys:
 ___ - palm mute
  x  - mute
 /  - slide
 ( ) - ringing note
  "  - tremelo pick
 < > - Pinch Harmonic
  h  - hammer on
  B  - bend w/whammy bar


INTRO:(Gtr 1)|---------------------------------------------------------||---------------------------------------------------------||-----------------------2---------------------------2-----||----2--4--5------2-4-5---5-4----2--4--5------2-4-5---5-4-||-2-----------2-2-------------2-----------2-2-------------||-0-----------0-0-------------0-----------0-0-------------| _ ___ _ ___
(Gtr 2)|---------------------------------------------------------||---------------------------------------------------------||---------------------------------------------------------||---------------------------------------------------------||-2-----------2-2-------------2-----------2-2-------------||-0-----------0-0-------------0-----------0-0-------------| _ ___ _ ___
(Gtr 1) ---------------------------------------------------------| ---------------------------------------------------------| ---------------------------------------------------------| -----------------------4---------------------------4-----| -2--4--6--7--2-2-4-6-7---7-6-2--4--6--7--2-2-4-6-7---7-6-| -0-----------0-0-------------0-----------0-0-------------| _ ___ _ ___
(Gtr 2) ---------------------------------------------------------| ---------------------------------------------------------| ---------------------------------------------------------| ---------------------------------------------------------| -2-----------2-2-------------2-----------2-2-------------| -0-----------0-0-------------0-----------0-0-------------| _ ___ _ ___
(Gtr 1 + 2)|---------------------------------------------------------||---------------------------------------------------------||-----------------------2---------------------------2-----||----2--4--5------2-4-5---5-4----2--4--5------2-4-5---5-4-||-2-----------2-2-------------2-----------2-2-------------||-0-----------0-0-------------0-----------0-0-------------| _ ___ _ ___
---------------------------------------------------------| ---------------------------------------------------------| ---------------------------------------------------------| -----------------------4---------------------------4-----| -2--4--6--7--2-2-4-6-7---7-6-2--4--6--7--2-2-4-6-7---7-6-| -0-----------0-0-------------0-----------0-0-------------| _ ___ _ ___
(Gtr 1)|-----------------------------------------------------------------------||-----------------------------------------------------------------------||----------------------------2----------------------------------2-------||----2---4---5------2--4--5-----5--4----2---4---5------2--4--5-----5--4-||-2-------------2-2------------------2-------------2-2------------------||-0-------------0-0------------------0-------------0-0------------------| _ ___ _ ___
(Gtr 2)|-----------------------------------------------------------------------||---------------------------10---------------------------------10-------||----9--11--12------9-11-12----12-11----9--11--12------9-11-12----12-11-||-----------------------------------------------------------------------||-----------------------------------------------------------------------||-0-------------0-0------------------0-------------0-0------------------| _ ___ _ ___
(Gtr 1) ---------------------------------------------------------| ---------------------------------------------------------| ---------------------------------------------------------| -----------------------4---------------------------4-----| -2--4--6--7--2-2-4-6-7---7-6-2--4--6--7--2-2-4-6-7---7-6-| -0-----------0-0-------------0-----------0-0-------------| _ ___ _ ___
(Gtr 2) ---------------------------------------------------------| -----------------------7---------------------------7-----| ----6--8--9------6-8-9---9-8----6--8--9------6-8-9---9-8-| ---------------------------------------------------------| ---------------------------------------------------------| -0-----------0-0-------------0-----------0-0-------------| _ ___ _ ___
RIFF A:(Gtr 1)|---------------------------------------------------------||---------------------------------------------------------||-9-----------9-------------------9-----------9-----------||-9-----------8-------------------9-----------8-----------||---------------------------------------------------------||---0-0-0-0-0---0-0-0-0-0-0-0-0-0---0-0-0-0-0---0-0-0-0-0-| _________ _________________ _________ _________
(Gtr 2)|---------------------------------------------------------||---------------------------------------------------------||---------------------------------------------------------||-2-------------------------------------------------------||-2-------------------------------------------------------||-0-------------------------------------------------------|
(Gtr 1) ------------------------------------------------------------------| ------------------------------------------------------------------| -9-12--9-----------9-------------------9-----------9--------------| -x--x---x-----------8-------------------x-----------8-------------| -7-10--7-------------------------------7--------------------------| ----------0-0-0-0-0---0-0-0-0-0-0-0-0-0---0-0-0-0-0---0-0-0-0-0---| _________ _________________ _________ _________
(Gtr 2) ------------------------------------------------------------------| ------------------------------------------------------------------| -9-12--9-----------9-------------------9-----------9--------------| -x--x---x-----------8-------------------x-----------8-------------| -7-10--7-------------------------------7--------------------------| ------------------------------------------------------------------|
(Gtr 1 + 2)|-------------------------------------------------------------------||-------------------------------------------------------------------||-9-12--9-----------9-------------------9-----------9---------------||-x--x---x-----------8-------------------x-----------8--------------||-7-10--7-------------------------------7---------------------------||----------0-0-0-0-0---0-0-0-0-0-0-0-0-0---0-0-0-0-0---0-0-0-0-0----| 2x _________ _________________ _________ _________
|-----------------------------------------------------------------||-----------------------------------------------------------------||-9-12--9-----------9-------------------9-----------9-------------||-x--x---9-----------8-------------------9-----------8------------||-7-10------------------------------------------------------------||----------0-0-0-0-0---0-0-0-0-0-0-0-0-0---0-0-0-0-0---0-0-0-0-0--| _________ _________________ _________ _________
-----------------------------------------------------------------| -----------------------------------------------------------------| -9-12--9-----------9-------------------9-----------9-------------| -9-12--9-----------8-------------------9-----------8-------------| -7-10------------------------------------------------------------| ----------0-0-0-0-0---0-0-0-0-0-0-0-0-0---0-0-0-0-0---0-0-0-0-0--| _________ _________________ _________ _________
-----------------------------------------------------------------| -----------------------------------------------------------------| -9-12--9-----------9-------------------9-----------9-------------| -x--x---x-----------8-------------------x-----------8------------| -7-10--7-------------------------------7-------------------------| ----------0-0-0-0-0---0-0-0-0-0-0-0-0-0---0-0-0-0-0---0-0-0-0-0--| _________ _________________ _________ _________
-------------------------------------------------------------------------| -------------------------------------------------------------------------| -9-12--9-----------9-------------------9-----------9-----------9-12------| -x--x---x-----------8-------------------x-----------8-----------x--x-----| -7-10--7-------------------------------7-----------------------7-10------| ----------0-0-0-0-0---0-0-0-0-0-0-0-0-0---0-0-0-0-0---0-0-0-0-0----------| _________ _________________ _________ _________
VERSE:
|------------------||------------------||------------------||-4-6-3-(3)--------||-4-6-3-(3)--------||-2-4-1--1"--------| 4x
CHORUS:
|-----------------------------------------------------||-----------------------------------------------------||-----------------------------------------------------||-5-6-4-(4)----5-6-4-(4)----5-6-3-(3)----5-6-3-(3)----||-5-6-4-(4)----5-6-4-(4)----5-6-3-(3)----5-6-3-(3)----||-3-4-2--2"----3-4-2--2"----3-4-1--1"----3-4-1--1"----| 2x
VERSE - 4x CHORUS - 2x RIFF A:
|-------------------------------------------------||-------------------------------------------------||-------------------------------------------------||-4/5----------5/6----------4/5----------8-7-8-7--||-4/5----------5/6----------4/5----------8-7-8-7--||-2/3-00000000-3/4-00000000-2/3-00000000-6-5-6-5--| 4x
RIFF B:
|----------------------------| |----------------------------------||----------------------------| |----------------------------------||----------------------------| |----------------------------------||-4-5-7-4--7"-6"-------------| |-4-5-7-4--7"-6"-------------4-5-7-||-4-5-7-4--------7"-6"-------| |-4-5-7-4--------7"-6"-------4-5-7-||-2-3-5-2--------------5"-4"-| 5x |-2-3-5-2--------------5"-4"-2-3-5-|
RIFF C:
|-----------------------------------------------||-----------------------------------------------||-----------------------------------------------||-----------------------------------------------||-4/5---4/5---4/5---4/5---6/7---6/7---6/7---6/7-||-2/3-0-2/3-0-2/3-0-2/3-0-4/5-0-4/5-0-4/5-0-4/5-|
----------------------------------------------------| ----------------------------------------------------| ---------------------------------------9/109--------| ---------------------------------------x------11----| ---4/5---4/5---4/5---4/5---6/7---6/7---7/-87--x-----| -0-2/3-0-2/3-0-2/3-0-2/3-0-4/5-0-4/5-0---------9----| 2x
RIFF B:
|---------------------------------------------------------||---------------------------------------------------------||---------------------------------------------------------||-4--7"-6"-------------4-5-7-4--7"-6"-------------4-5-7-4-||-4--------7"-6"-------4-5-7-4--------7"-6"-------4-5-7-4-||-2--------------5"-4"-2-3-5-2--------------5"-4"-2-3-5-2-|
----------------------------------------------------| ----------------------------------------------------| ----------------------------------------------------| -7"-6"-------------4-5-7-4--7"-6"-------------4-5-7-| -------7"-6"-------4-5-7-4--------7"-6"-------4-5-7-| -------------5"-4"-2-3-5-2--------------5"-4"-2-3-5-|
RIFF C - 2x RIFF D:
|---------------------------------------------------------------||---------------------------------------------------------------||---------------------------<4>~--------------------------------||-4-----6--------4-----6----------4-----6--------4-----6--4-5-7-||-4-6-7-6--4-6-7-4-6-7-6--4-------4-6-7-6--4-6-7-4-6-7-6--4-5-7-||-2-4-5-4--2-4-5-2-4-5-4--2-------2-4-5-4--2-4-5-2-4-5-4--2-3-5-| 4x ___ _____ ___ _ ___ _____ ___
Note - no solo available - RIFF A played under solo 4x INTERLUDE:
|-----------------------------------------------||-----------------------------------------------||-----------------------------------------------||-7-6-7-9--4h5h6---3h4---7-6-7-9--4h5h6---3h4---||-7-6-7-9--------3-----2-7-6-7-9--------3-----2-||-5-4-5-7----------------5-4-5-7----------------| _ _ _ _
-----------------------------------------------| -----------------------------------------------| -----------------------------------------------| -5-4-5-8--2h3h4---1h2---5-4-5-8--2h3h4---1h2---| -5-4-5-8--------1-----0-5-4-5-8--------1-----0-| -3-2-3-6----------------3-2-3-6----------------| 2x _ _ _ _
|---------------------------------------------------||---------------------------------------------------||---------------------------------------------------||-4h5h6---3h4--------------2h3h4---1h2--------------||-------3-----2------------------1-----0------------||---------------0-00-0-0-0---------------0-00-0-0-0-| _ ____________ _ ____________
------------------------------------------------------| ------------------------------------------------------| ------------------------------------------------------| -4h5h6---3h4--------------2h3h4---1h2---4h5h6---3h4---| -------3-----2------------------1-----0-------3-----2-| ---------------0-00-0-0-0-----------------------------| 4x _ ____________ _ _ _ _
|-------------------------------------------------||-------------------------------------------------||-------------------------------------------------||-4h5---3-----2h3---1-----4h5---3-----2h3---1-----||-----3---2-2-----1---0-0-----3---2-2-----1---0-0-||-------------------------------------------------| _ ___ _ ___ _ ___ _ ___
---------------------------------------------| ---------------------------------------------| -------------------------------------------3-| -4h5---3-----2-----1-----4h5---3-----2-----1-| -----3---2-2---1-1---0-0-----3---2-2---1-1---| ---------------------------------------------| _ ___ ___ ___ _ ___ ___
VERSE - 4x CHORUS 2x VERSE - 4x CHORUS - 2x RIFF A:
|-------------------------------------------------||-------------------------------------------------||-------------------------------------------------||-4/5----------5/6----------4/5----------8-7-8-7--||-4/5----------5/6----------4/5----------8-7-8-7--||-2/3-00000000-3/4-00000000-2/3-00000000-6-5-6-5--| 3x
|-------------------------------------------------------------------||-------------------------------------------------------------------||-------------------------------------------------------------------||-4/5----------5/6----------4/5----------8-7-8-7--------------------||-4/5----------5/6----------4/5----------8-7-8-7--------------------||-2/3-00000000-3/4-00000000-2/3-00000000-6-5-6-5--------------------|
OUTRO: (eventual fade out)
|----------------------------------------------------------||----------------------------------------------------------||----------------------------------------------------------||---------54-5--------5/8------------54-5----7--7/8-5------||---------54-5--------5/8------------54-5----7--7/8-5------||-0-0-0-0-32-3----0-0-3/6----0-0-0-0-32-3----5--5/6-3------| _______ ___ _______
Note - the following is thrown in after Outro riff is played 4x
|--------------------------------------------------------||--------------------------------------------------------||-<10>B--------------------------------------------------||--------------------------------------------------------||--------------------------------------------------------||--------------------------------------------------------|
Tap to rate this tab
 
# A B C D E F G H I J K L M N O P Q R S T U V W X Y Z