Vital Remains - Battle Ground tab

Tuning: 1 step down (D)

Keys:
 ___ - palm mute
 / \ - slide
  "  - tremelo pick
  x  - mute
  p  - pull off


INTRO:(Gtr 1)|--------------------------------------------||--------------------------------------------||--------------------------------------10-10-||-5----7\6/7-5----8\7/8-5----7\6/7-5---10-10-||-3----5\4/5-3----6\5/6-3----5\4/5-3----8--8-||---00---------00---------00---------00------| __ __ __ __
(Gtr 2)|--------------------------------------------||--------------------------------------------||--------------------------------------10-10-||-5----------5----------5----------5---10-10-||-3----------3----------3----------3----8--8-||------------------------------------00------| __
(Gtr 1)|--------------------------------------------||--------------------------------------------||--------------------------------------10-10-||-5----7\6/7-5----8\7/8-5----7\6/7-5---10-10-||-3----5\4/5-3----6\5/6-3----5\4/5-3----8--8-||---00---------00---------00---------00------| __ __ __ __
(Gtr 2)|--------------------------------------------||--------------------------------------------||--------------------------------------10-10-||-5-----5-----5-----5------5-5-5-5-5---10-10-||-3-----3-----3-----3------3-3-3-3-3----8--8-||------------------------------------00------| __
RIFF A:
|--------------------------------------------||--------------------------------------------||--------------------------------------10-10-||-5----7\6/7-5----8\7/8-5----7\6/7-5---10-10-||-3----5\4/5-3----6\5/6-3----5\4/5-3----8--8-||---00---------00---------00---------00------| 4x __ __ __ __
RIFF B:
|-------------------------------------------------||-------------------------------------------------||-------------------------------------------------||-------------------------------------------------||-3"-----5"---4"-----6"---3"-----5"---4"-----6"---||-1"--0"-3"---2"--0"-4"---1"--0"-3"---2"--0"-4"---|
(Gtr 1)|-------------------------------------------------||-------------------------------------------------||-------------------------------------------------||-------------------------------------------------||-3"-----5"---4"-----6"---3"-----5"---4"-----6"---||-1"--0"-3"---2"--0"-4"---1"--0"-3"---2"--0"-4"---|
(Gtr 2)|-------------------------------------------------||-------------------------------------------------||-------------------------------------------------||-3"--2"-5"---4"-2"--6"---3"-2"--5"---4"-2"--6"---||-------------------------------------------------||-------------------------------------------------|
RIFF A - 4x RIFF B RIFF C:
|-------------------------------------------------------||-------------------------------------------------------||----8/9-8/9-6-----9/10-9/10-7-----12----10-----9--9/10-||----x---x---x-----x----x----x------x-----x-----x--x----||-2--6/7-6/7-4--2--7/-8-7/-8-5--2--10--2--8--2--7--7/-8-||-0-------------0---------------0------0-----0----------| 2x
|---------------------------------------------------||---------------------------------------------------||----9-9/10-6-----9-9/10-7-----12----10-----9--9/10-||----x-x----x-----x-x----x------x-----x-----x--x----||-2--7-7/-8-4--2--7-7/-8-5--2--10--2--8--2--7--7/-8-||-0------------0------------0------0-----0----------| 2x
|---------------------------------------------------||---------------------------------------------------||----9-9/10-6-----9-9/10-7-----12----10-----9--9/10-||----9-9/10-6-----9-9/10-7-----12----10-----9--9/10-||-2--7-7/-8-4--2--7-7/-8-5--2--10--2--8--2--7--7/-8-||-0------------0------------0------0-----0----------| 2x _ _ _ _ _
|---------------------------------------------------||---------------------------------------------------||----9-9/10-6-----9-9/10-7-----12----10-----9--9/10-||----x-x----x-----x-x----x------x-----x-----x--x----||-2--7-7/-8-4--2--7-7/-8-5--2--10--2--8--2--7--7/-8-||-0------------0------------0------0-----0----------| 2x
RIFF A - 4x RIFF B RIFF A - 4x RIFF B RIFF D:
|----------------------------||----------------------------||----------------------------||-3--6-5--4-2-4-3--6-5--4-2--||-1--4-5--4-0-4-1--4-5--4-0--||------3--2---2------3--2----| 4x
RIFF E:
|-------------------------------------------------------------|-------------------------------------------------------------|-------6-6----------6-7-9-10-9-7-------6-6----------9-10-9-7-|-------x-x----------x-x-x--x-x-x-------x-x----------x--x-x-x-|-------4-4----------4-5-7--8-7-5-------4-4----------7--8-7-5-|-3p2p0-----0--0-0-0--------------3p2p0-----0--0-0-0---------- ________ ________
---------------------------------------- ---------------------------------------- --------------6-6----------6-7-9-10-9-7- --------------x-x----------x-x-x--x-x-x- --------------4-4----------4-5-7--8-7-5- -3333-6p5p3-2-----0--0-0-0-------------- __________ ________
---------------------------------------| ---------------------------------------| ------6-6----------9-10-9-7------------| ------x-x----------x--x-x-x------------| ------4-4----------7--8-7-5------------| 3p2p0-----0--0-0-0----------3333-6p5p3-| ________ __________
RIFF D - 4x RIFF E RIFF F:
|---------------------------------||---------------------------------||---------8/9---------------------||-9---6---6/7---9---8--10-9-8-7-8-||-7---4---------7---6---8-7-8-7-8-||---0---0-----0---0---0-----6-5-6-| 8x _ _ _ _ _
RIFF G:
|-------------------------------------------------------------------||-------------------------------------------------------------------||-------------------------------------------------------------------||-4---------4-----7-5---------5-----7-4---------4-----7-5-7-5-3-5-3-||-4---------4-----7-5---------5-----7-4---------4-----7-5-7-5-3-5-3-||-2-2-2-2-2-2-2-2-5-3-3-3-3-3-3-3-3-5-2-2-2-2-2-2-2-2-5-3-5-3-1-3-1-| 4x _______ ___ _______ ___ _______ ___
(Gtr 1)|-------------------------------------------------------------------||-------------------------------------------------------------------||-------------------------------------------------------------------||-4---------4-----7-5---------5-----7-4---------4-----7-5-7-5-3-5-3-||-4---------4-----7-5---------5-----7-4---------4-----7-5-7-5-3-5-3-||-2-2-2-2-2-2-2-2-5-3-3-3-3-3-3-3-3-5-2-2-2-2-2-2-2-2-5-3-5-3-1-3-1-| 2x _______ ___ _______ ___ _______ ___
(Gtr 2)|-------------------------------------------------------------------||-------------------------------------------------------------------||-------------------------------------------------------------------||-4"-------------7"-5"-------------7"-4"--------------7-5-7-5-3-5-3-||-------------------------------------------------------------------||-------------------------------------------------------------------| 2x
(Gtr 1 + 2)|-------------------------------------------------------------------||-------------------------------------------------------------------||-------------------------------------------------------------------||-4---------4-----7-5---------5-----7-4---------4-----7-5-7-5-3-5-3-||-4---------4-----7-5---------5-----7-4---------4-----7-5-7-5-3-5-3-||-2-2-2-2-2-2-2-2-5-3-3-3-3-3-3-3-3-5-2-2-2-2-2-2-2-2-5-3-5-3-1-3-1-| 2x _______ ___ _______ ___ _______ ___
(Gtr 1)|-------------------------------------------------------------------||-------------------------------------------------------------------||-------------------------------------------------------------------||-4---------4-----7-5---------5-----7-4---------4-----7-5-7-5-3-5-3-||-4---------4-----7-5---------5-----7-4---------4-----7-5-7-5-3-5-3-||-2-2-2-2-2-2-2-2-5-3-3-3-3-3-3-3-3-5-2-2-2-2-2-2-2-2-5-3-5-3-1-3-1-| 2x _______ ___ _______ ___ _______ ___
(Gtr 2)|-------------------------------------------------------------------||-------------------------------------------------------------------||-------------------------------------------------------------------||-4"-------------7"-5"-------------7"-4"--------------7-5-7-5-3-5-3-||-------------------------------------------------------------------||-------------------------------------------------------------------| 2x
INTRO RIFF A - 4x RIFF B RIFF A - 4x RIFF B RIFF C
Tap to rate this tab
 
# A B C D E F G H I J K L M N O P Q R S T U V W X Y Z