Voivod – X-stream tab

Band:  VoiVod
Album: Katorz
Song:  The X-Stream

Copyright (c)  (Nuclear Blast) (2006)
Version 1.0 - (25/07/06)

Transcribed By: Steve
Email:          stephen.elvidge1@ntlworld.com


.  - palm mute           /  - slide up to
\  - slide down to       ~  - vibrato
h  - hammer on           b  - Bend
p  - pull off            Suffixes for bend
t  - tap                 f  - full bend    h - half bend
ph - pinched harmonic    q  - quarter bend t - tap bend
*  - see comment         ^  - Hold bend    r release bend
x  - Stuccatto           ~  - vibrato bend
,  - slight palm mute    () - ghost note, sustained note
"  - tremolo note        <> - Trill

Tuning E A D G B E

|----------------------------------------------------------------||----------------------------------------------------------------||----------------------------------------------------------------||----------------------------------------------------------------||-7----7---7---7---7---7---7---7---7---7---7---7---7---7---7---7-||-0-00-0-0-0-0-0-0-0-0-0-0-0-0-0-0-0-0-0-0-0-0-0-0-0-0-0-0-0-0-0-|
Drums and bass enter
|---------------------------------------------------------||---------------------------------------------------------||---------------------------------------------------------||---------------------------------------------------------||-7----7---7---7----7---7-8-8-8-8-8-8-8-8-8-8-8-8-8-8-8-8-||-0-00-0-0-0-0-0-00-0-0-0-6-6-6-6-6-6-6-6-6-6-6-6-6-6-6-6-|
Main Riff
|------------------------------------||------------------------------------||------------------------------------||---------------------------------8--||-7-7-7-7-7-7-7-7-7-7-7-7-7-7-7-7-8--||-0-0-0-0-0-0-0-0-0-0-0-0-0-0-0-0----| Rpt 4 X
Verse
[--------PM--------]|-----------------------------------||-----------------------------------||---------------------3--3p2p0------||---------------------3--3p2p0------||-2-2-2-2-2-2-2-2-2-2------------5--||-0-0-0-0-0-0-0-0-0-0----------0----| Rpt 8 X
Bridge
|------------------------------||------------------------------||------------------------------||---------------------3--------||-5-5-5-5-5-5-5-5-5-5-1--------||-3-3-3-3-3-3-3-3-3-3----0-1-2-| Rpt 4 X
Chorus
Guitar 1 ~~~~~~[---------------------------------|[---------------------------------|[---------------------2-2b--------|[---------------------------------|[---------------------------------|[---------------------------------|
[Guitar 2[---------------------------------|[---------------------------------|[---------------------------------|[---------------------------------|[---------------------------------|[-0-0-0-0-0-0-0-0-0-0-0-0-0-0-0-0-| Rpt 4 X
Rpt Verse and bridge
|------------------------------------------------------------------||------------------------------------------------------------------||------------------------------------------------------------------||------------------------------------------------------------------||-8-8-8-8-8-8-8-8-8-8-8-8-8-8-8-8-8-8-8-8-8-8-8-8/1010101010101010-||-6-6-6-6-6-6-6-6-6-6-6-6-6-6-6-6-6-6-6-6-6-6-6-6/8-8-8-8-8-8-8-8--|
|------------------------------------------------------------||------------------------------------------------------------||------------------------------------------------------------||------------------------------------------------------------||-1111111111111111111111111111111111111111111111111111111111-||-9-9-9-9-9-9-9-9-9-9-9-9-9-9-9-9-9-9-9-9-9-9-9-9-9-9-9-9-9--|
Rpt Chorus Rpt Verse and Bridge pattern
|------------------------------------------------------------------||------------------------------------------------------------------||------------------------------------------------------------------||------------------------------------------------------------------||-8-8-8-8-8-8-8-8-8-8-8-8-8-8-8-8-8-8-8-8-8-8-8-8/1010101010101010-||-6-6-6-6-6-6-6-6-6-6-6-6-6-6-6-6-6-6-6-6-6-6-6-6/8-8-8-8-8-8-8-8--|
|-------------------------------------------------------------||-------------------------------------------------------------||-------------------------------------------------------------||-------------------------------------------------------------||-1111111111111111111111111111111111111111111111111111111111\-||-9-9-9-9-9-9-9-9-9-9-9-9-9-9-9-9-9-9-9-9-9-9-9-9-9-9-9-9-9-\-|
Mid 8
PM PM PM [-PM-]~~|---------------------------------------------------||---------------------------------------------------||---------------------------------------------------||-2-2---------2-2---------2-2---------2-2-----------||-1-1---------1-1---------1-1---------1-1-----------||-----0-----------0-----------0-----------0-3-2-1---| Rpt
PM PM PM [-PM-]~~|----------0-----------0-----------0----------------||----------0-----------0-----------0----------------||---------------------------------------------------||-2-2----x----2-2----x----2-2----x----2-2-----------||-1-1----x----1-1----x----1-1----x----1-1-----------||-----0-----------0-----------0-----------0-3-2-1---|
PM PM PM [-PM-]|----------0-----------0-----------0----------------||----------0-----------0-----------0----------------||---------------------------------------------------||-2-2----x----2-2----x----2-2----x----2-2-----------||-1-1----x----1-1----x----1-1----x----1-1---5\4\3---||-----0-----------0-----------0-----------0-3\2\1---|
Lead fill h h h h h h h h|---------------------------------------------||-9p8p6-9p8p6-9p8p6-9p8p6-9p8p6-9p8p6-9p8p6-9-||---------------------------------------------||---------------------------------------------||---------------------------------------------||---------------------------------------------|
Backing for lead fill [--------------------PM-------------------------]|-------------------------------------------------||-------------------------------------------------||-------------------------------------------------||-------------------------------------------------||-5-5-5-5-5-5-5-5-5-5-5-5-5-5-5-5-5-5-5-5-5-5-5-5-||-3-3-3-3-3-3-3-3-3-3-3-3-3-3-3-3-3-3-3-3-3-3-3-3-|
Lead fill h h h h h h h h|-------------------------------------------9-||-9p8p6-9p8p6-9p8p6-9p8p6-9p8p6-9p8p6-9p8p6---||---------------------------------------------||---------------------------------------------||---------------------------------------------||---------------------------------------------|
Backing for lead fill [--------------------PM-------------------------]|--------------------------------------------------||--------------------------------------------------||--------------------------------------------------||--------------------------------------------------||-5-5-5-5-5-5-5-5-5-5-5-5-5-5-5-5-5-5-5-5-5-5-5-5\-||-3-3-3-3-3-3-3-3-3-3-3-3-3-3-3-3-3-3-3-3-3-3-3-3\-|
|-9-9-9-9-9-9-9-9-9-9-9-9-9-9-9-9-9-9/10-||-8-8-8-8-8-8-8-8-8-8-8-8-8-8-8-8-8-8/9--||----------------------------------------||----------------------------------------||----------------------------------------||----------------------------------------|
Rpt Verse
Guitar 1 [--------PM--------][------------------------------------|[------------------------------------|[---------------------3p0-3p2p0------|[---------------------3p0-3p2p0------|[-2-2-2-2-2-2-2-2-2-2-------------5--|[-0-0-0-0-0-0-0-0-0-0-----------0----|
[Guitar 2[------------------------------------|[------------------------------------|[-0---------(0)----------------------|[------------------------------------|[------------------------------------|[------------------------------------| Rpt 8 X
Rpt Bridge
Guitar 1[------------------------------|[------------------------------|[------------------------------|[---------------------3--------|[-5-5-5-5-5-5-5-5-5-5-1--------|[-3-3-3-3-3-3-3-3-3-3----0-1-2-|
[Guitar 2[-3-3-3-3-3-3-3-3-3-3-5--------|[-3-3-3-3-3-3-3-3-3-3-5--------|[------------------------0-0-0-|[------------------------------|[------------------------------|[------------------------------| Rpt 4 X
Rpt Mid 8
|----------0-----------0-----------0------------0--||----------0-----------0-----------0------------0--||--------------------------------------------------||-2-2---------2-2---------2-2---------2-2----------||-1-1---------1-1---------1-1---------1-1----------||-----0--(0)------0--(0)------0--(0)------0--(0)---| Rpt 3 X
~~|----------0-----------0-----------0------------0-------------------||----------0-----------0-----------0------------0-------------------||-----------------------------------------------------3-----(3)-----||-2-2---------2-2---------2-2---------2-2-------------2-----(2)-----||-1-1-1--(1)--1-1-1--(1)--1-1-1--(1)--1-1-1--(1)------1-----(1)-----||-----0--(0)------0--(0)------0--(0)------0--(0)---1--0-----(0)-----|
END
Please rate this tab:
x1.0