Volbeat - Always Wu tab

Volbeat - Always Wu

Tuning: D A D G B e

Enjoy!

Intro:e|------------------------------------------------------------|B|------------------------------------------------------------|G|--------------------------7~--------------------------------|D|--8~-----7~-----5~-----7~-7~-7-7-7-7-7-7-7-7-7-7-7-7-7-7-7-7|A|--8~-----7~-----5~-----7~-5~-5-5-5-5-5-5-5-5-5-5-5-5-5-5-5-5|D|--8~-8-8-7~-7-7-5~-5-5-7~-----------------------------------|
Verse 1: X2e|------------------------------------------------------|B|------------------------------------------------------|G|7~----------------------------------------------------|D|7~-------------------------8~-------------------------|A|5~-5-5-5-5-5-5-5-5-5-5-5-5-8~-------------------------|D|---------------------------8~-8-8-8-8-8-8-8-8-8-8-8-8-|
------------------------------------------------------| ------------------------------------------------------| ------------------------------------------------------| 5~-------------------------7~-------------------------| 5~-------------------------7~-------------------------| 5~-5-5-5-5-5-5-5-5-5-5-5-5-7~-7-7-7-7-7-7-7-7-7-7-7-7-|
Chorus:e|----------------------------------------------------------|B|----------------------------------------------------------|G|----------------------------------------------------------|D|-3~~-0~~-5~~-8-8-8-8-7-7-7-7-8-8-8-8-7-7-7-7--3~~-0~~-5~~-|A|-3~~-0~~-5~~-8-8-8-8-7-7-7-7-8-8-8-8-7-7-7-7--3~~-0~~-5~~-|D|-3~~-0~~-5~~-8-8-8-8-7-7-7-7-8-8-8-8-7-7-7-7--3~~-0~~-5~~-|
-------------------------| -------------------------| -------------------------| -8~-----7~-----5~-----7~-| -8~-----7~-----5~-----7~-| -8~-8-8-7~-7-7-5~-5-5-7~-|
e|------------------------------------------------|B|------------------------------------------------|G|-7~---------------------------------7~----------|D|-7~-7-7-7-7-7-7-7-7-7-7-7-7-7-7-7-7-7~-- BREAK -|A|-5~-5-5-5-5-5-5-5-5-5-5-5-5-5-5-5-5-7~----------|D|------------------------------------------------|
Verse 2: X2e|------------------------------------------------------|B|------------------------------------------------------|G|7~----------------------------------------------------|D|7~-------------------------8~-------------------------|A|5~-5-5-5-5-5-5-5-5-5-5-5-5-8~-------------------------|D|---------------------------8~-8-8-8-8-8-8-8-8-8-8-8-8-|
------------------------------------------------------| ------------------------------------------------------| ------------------------------------------------------| 5~-------------------------7~-------------------------| 5~-------------------------7~-------------------------| 5~-5-5-5-5-5-5-5-5-5-5-5-5-7~-7-7-7-7-7-7-7-7-7-7-7-7-|
Chorus:e|----------------------------------------------------------|B|----------------------------------------------------------|G|----------------------------------------------------------|D|-3~~-0~~-5~~-8-8-8-8-7-7-7-7-8-8-8-8-7-7-7-7--3~~-0~~-5~~-|A|-3~~-0~~-5~~-8-8-8-8-7-7-7-7-8-8-8-8-7-7-7-7--3~~-0~~-5~~-|D|-3~~-0~~-5~~-8-8-8-8-7-7-7-7-8-8-8-8-7-7-7-7--3~~-0~~-5~~-|
-----------------------------------------------------| -----------------------------------------------------| -----------------------------------------------------| -8~-----7~-----5~-----7~-----8~-----7~-----5~-----7~-| -8~-----7~-----5~-----7~-----8~-----7~-----5~-----7~-| -8~-8-8-7~-7-7-5~-5-5-7~-7-7-8~-8-8-7~-7-7-5~-5-5-7~-|
e|--------------------------------------------------------------------------|B|--------------------------------------------------------------------------|G|--------------------------------------------------------------------------|D|-3~~-------3p0-3--5-7-5-3h5p3p0-3~~--0~~--8~~--3~~-----3~~--0~~--8~~--3~~-|A|-3~~--3h5-----------------------3~~--0~~--8~~--3~~-----3~~--0~~--8~~--3~~-|D|-3~~----------------------------3~~--0~~--8~~--3~~-3h5-3~~--0~~--8~~--3~~-|
e|-----------------------------------------------------------------|B|-----------------------------------------------------------------|G|-----------------------------------------------------------------|D|-5-5-5-5-5-5-5-5-5-5-5-5-5-5-5-5-3-3-3-3-3-3-3-3-3-3-3-3-3-3-3-3-|A|-3-3-3-3-3-3-3-3-3-3-3-3-3-3-3-3-1-1-1-1-1-1-1-1-1-1-1-1-1-1-1-1-|D|-----------------------------------------------------------------|
---------------------------------------------------------| ---------------------------------------------------------| ---------------------------------------------------------| -5-5-5-5-5-5-5-5-5-5-5-5-5-5-5-5-8~-----7~-----5~-----7~-| -3-3-3-3-3-3-3-3-3-3-3-3-3-3-3-3-8~-----7~-----5~-----7~-| ---------------------------------8~-8-8-7~-7-7-5~-5-5-7~-|
Chorus:e|----------------------------------------------------------|B|----------------------------------------------------------|G|----------------------------------------------------------|D|-3~~-0~~-5~~-8-8-8-8-7-7-7-7-8-8-8-8-7-7-7-7--3~~-0~~-5~~-|A|-3~~-0~~-5~~-8-8-8-8-7-7-7-7-8-8-8-8-7-7-7-7--3~~-0~~-5~~-|D|-3~~-0~~-5~~-8-8-8-8-7-7-7-7-8-8-8-8-7-7-7-7--3~~-0~~-5~~-|
-------------------------| -------------------------| -------------------------| -8~-----7~-----5~-----7~-| -8~-----7~-----5~-----7~-| -8~-8-8-7~-7-7-5~-5-5-7~-|
Rhythm guitar: (SOLO)e|-------------------------------------------------------------------------|B|-------------------------------------------------------------------------|G|-------------------------------------------------------------------------|D|-3-3-3-3-3-3-3-3-3-3-3-3-0-0-0-0-0-0-0-0-0-0-0-0-5-5-5-5-5-5-5-5-5-5-5-5-|A|-3-3-3-3-3-3-3-3-3-3-3-3-0-0-0-0-0-0-0-0-0-0-0-0-5-5-5-5-5-5-5-5-5-5-5-5-|D|-3-3-3-3-3-3-3-3-3-3-3-3-0-0-0-0-0-0-0-0-0-0-0-0-5-5-5-5-5-5-5-5-5-5-5-5-|
--------------------------------| --------------------------------| --------------------------------| 8-8-8-8-7-7-7-7-8-8-8-8-7-7-7-7-| 8-8-8-8-7-7-7-7-8-8-8-8-7-7-7-7-| 8-8-8-8-7-7-7-7-8-8-8-8-7-7-7-7-|
SOLO:e|--------------------------------------------------------------|B|--------------------------------------------------------------|G|-----------------------2-3--3/5-3-2h3p2-----------------------|D|-3--5-6-7~--7-5-5-4--5------------------3--7p5p3-7p5p3-3-5-3~-|A|--------------------------------------------------------------|D|--------------------------------------------------------------|
Chorus:e|------------------------------------------------------------------|B|------------------------------------------------------------------|G|------------------------------------------------------------------|D|-3~~-0~~-5~~--8~-----7~-----5~-----7~-----8~-----7~-----5~-----7~-|A|-3~~-0~~-5~~--8~-----7~-----5~-----7~-----8~-----7~-----5~-----7~-|D|-3~~-0~~-5~~--8~-8-8-7~-7-7-5~-5-5-7~-7-7-8~-8-8-7~-7-7-5~-5-5-7~-|
---------------------------------| ---------------------------------| ---------------------------------| ----8~-----7~-----5~-----7~-3~~~-| ----8~-----7~-----5~-----7~-3~~~-| 7-7-8~-8-8-7~-7-7-5~-5-5-7~~3~~~-|
Lyrics: Sickness hide inside Eating flesh by time The saddest news I have in mind But I know you man A heart like no one else Keeps the fire glow friend [Chorus:] If I loose you, with the smile you do If I loose you, in the morning In the final sleep If I lose you [ Lyrics from: http://www.lyricsmode.com/lyrics/v/volbeat/always_wu.html ] Only one to know And I promise you Nothing change unless you say But I know you man A heart like no one else Keeps the fire glow my friend [Chorus] Carry on cause there's no place to hide Find the oath and feel Our love for you is for all endless time Alone you never be [Chorus]
Tap to rate this tab
 
# A B C D E F G H I J K L M N O P Q R S T U V W X Y Z