Warrant - Youre The Only Hell Your Mama Ever Raised tab

Song:You're The Only Hell Your Mama Ever Raised
Artist:Warrant
Written By:Jani Lane
Album:Cherry Pie
Tuning:Half Step Down

Chords:G5-355xxxB5-x244xxD5-x577xxA5-577xxxC#5-x466xxE5-x799xx
IntroModerate Rock Q=98 G A4/4Gtr I|-3---------------------------||-3----2-(2)------------------||-0----2-(2)--------2---------||-0----2-(2)-4------2---------||-2----0-(0)-5--3h4---3b4-(3)-||-3---------------------------|
D/A A G A|---------------------------|-3--------------------------||---2---2---2-3-3-3-3-2-2-0-|-3----2-(2)-----------------||---2---2---2-2-2-2-2-2-2-0-|-0----2-(2)-2-----2---------||---2---2---2-4-4-4-4-2-2-0-|-0----2-(2)-2-----2---------||---0---0---0-0-0-0-0-0-0-0-|-2----0-(0)---3h4---3b4-(3)-||---------------------------|-3--------------------------|
D/A A G A|---------------------------|-3--------------------------------------------||---2---2---2-3-3-3-3-2-2-0-|-3-------------2-----(2)----------------------||---2---2---2-2-2-2-2-2-2-0-|-0-------------2-----(2)--2--------2----------||---2---2---2-4-4-4-4-2-2-0-|-0-------------2-----(2)--2--------2----------||---0---0---0-0-0-0-0-0-0-0-|-2-------------0-----(0)-----3h4------3b4-(3)-||---------------------------|-3--------------------------------------------|
| | Gtr II | ~~~~~~~~~~~~ |
|---------------------------|----------------------------------------------||---------------------------|-------------20-------------------------------||---------------------------|-19b21==(19)----19r(19)p17-1(b9)----------------||---------------------------|-------------------------------1(b9)-----(19)---||---------------------------|----------------------------------------------||---------------------------|----------------------------------------------|
D/A A|-------------------------------------------------------||----2--------2----------2----3----3-3---3--2-2--0------||----2--------2----------2----2----2-2---2--2-2--0------||----2--------2----------2----4----4-4---4--2-2--0------||----0--------0----------0----0----0-0---0--0-0--0------||-------------------------------------------------------|
| | ~~~~~~~~~~~ | |---3---| |
|-------------------------------------------------------||-------------------------------------------------------||---17b18-------17b18---------------------------16b18---||---------1(b9)17---------1(b9)17---------------------------||-------------------------------1(b9)----(19)-------------||-------------------------------------------------------|
G A|---3-------------------------------------------------------------||---3-------------------2--------(2)------------------------------||---0-------------------2--------(2)--2-------------2-------------||---0-------------------2--------(2)--2-------------2-------------||---2-------------------0--------(0)---------3h==4--------3b4-(3)-||---3-------------------------------------------------------------|
| |
|------17------14-------------------------------------------------||----------------------17-----------------------------------------||-(16)----(16)----(16)----16b18-(16)-16b18r(16)-14-16-14----------||--------------------------------------------------------16---14--||-----------------------------------------------------------------||-----------------------------------------------------------------|
D/A A G A
|--------------------------------------------|-3--------------------------|||--------------2------2-----2-3--3-3-3-2-2-0-|-3-----2-(2)----------------|||--------------2------2-----2-2--2-2-2-2-2-0-|-0-----2-(2)-2-----2--------|||--------------2------2-----2-4--4-4-4-2-2-0-|-0-----2-(2)-2-----2--------|||--------------0------0-----0-0--0-0-0-0-0-0-|-2-----0-(0)---3h4---3b4-(3)|||--------------------------------------------|-3--------------------------||
| | PM-----------------------~ |
|--------------------------------------------|----------------------------|||-------4b4.5r(4)-2-4-2----------------------|----------------------------|||-------4b4.5r(4)-2-4-2-2-0------------------|----------------------------|||-(14)\---------------------2-1--------------|----------------------------|||-------------------------------/5-3---------|----------------------------|||------------------------------------5-4-3-0-|-3--------------------------||
1st Verse D/A A G A|---------------------------|-3--------------------------||---2---2---2-3-3-3-3-2-2-0-|-3----2-(2)-----------------||---2---2---2-2-2-2-2-2-2-0-|-0----2-(2)-2-----2---------||---2---2---2-4-4-4-4-2-2-0-|-0----2-(2)-2-----2---------||---0---0---0-0-0-0-0-0-0-0-|-2----0-(0)---3h4---3b4-(3)-||---------------------------|-3--------------------------|
D/A A G D|---------------------------|-3----------------------------||---2---2---2-3-3-3-3-2-2-0-|-3----7-(7)-------------------||---2---2---2-2-2-2-2-2-2-0-|-0----7-(7)-7-----7-----------||---2---2---2-4-4-4-4-2-2-0-|-0----7-(7)-7-----7-----------||---0---0---0-0-0-0-0-0-0-0-|-2----5-(5)---8h(b9)--8b(b9)(8)---||---------------------------|-3----------------------------|
G5 D G A|---2---2---3--2--|-3--------------------------||---3---3---3--3--|-3----2-(2)-----------------||---2---2---0--2--|-0----2-(2)-2-----2---------||---0---0---0--0--|-0----2-(2)-2-----2---------||-----------------|-2----0-(0)---3h4---3b4-(3)-||-----------3-----|-3--------------------------|
D/A A G A|---------------------------|-3----------------------------|||---2---2---2-3-3-3-3-2-2-0-|-3----2-(2)-------------------|||---2---2---2-2-2-2-2-2-2-0-|-0----2-(2)-2-----2-----------|||---2---2---2-4-4-4-4-2-2-0-|-0----2-(2)-2-----2-----------|||---0---0---0-0-0-0-0-0-0-0-|-2----0-(0)---3-4---3b4-(3)---|||---------------------------|-3----------------------------||
2nd & 3rd Verses D/A A||----------------------------|||o---2---2---2-3-3-3-3-2-2-0-|||----2---2---2-2-2-2-2-2-2-0-|||----2---2---2-4-4-4-4-2-2-0-|||o---0---0---0-0-0-0-0-0-0-0-|||----------------------------|
G A D/A A|-3--------------------------|---------------------------||-3----2-(2)-----------------|---2---2---2-3-3-3-3-2-2-0-||-0----2-(2)-2-----2---------|---2---2---2-2-2-2-2-2-2-0-||-0----2-(2)-2-----2---------|---2---2---2-4-4-4-4-2-2-0-||-2----0-(0)---3h4---3b4-(3)-|---0---0---0-0-0-0-0-0-0-0-||-3--------------------------|---------------------------|
G D G5 D G A|-3--------------------------|---2---2---3--2--|-3-------------------------||-3----7-(7)-----------------|---3---3---3--3--|-3----2-(2)----------------||-0----7-(7)-7-----7---------|---2---2---0--2--|-0----2-(2)-2-----2--------||-0----7-(7)-7-----7---------|---0---0---0--0--|-0----2-(2)-2-----2--------||-2----5-(5)---8h(b9)--8b(b9)(8)-|-----------------|-2----0-(0)---3h4---3b4-(3)||-3--------------------------|-----------3-----|-3-------------------------|
D/A A E5 F#5 G5 PM--------------------||---------------------------|----------------------------|--------------|||---2---2---2-3-3-3-3-2-2-0-|----------------------------|--------------|||---2---2---2-2-2-2-2-2-2-0-|----------------------------|--------------|||---2---2---2-4-4-4-4-2-2-0-|----------------------------|-5------------|||---0---0---0-0-0-0-0-0-0-0-|-2-2---------2-2-2-2-2-2-4--|-5------------|||---------------------------|-0-0-3b4-(3)-0-0-0-0-0-0-2--|-3-------10\--||
Chorus G D5 A5 E5 D/F# G D5|-3-3-----------|--------------2--|-3-3-----------||-3-3----3-3----|--------------3--|-3-3----3-3----||-0-0----2-2----|-2-2----------2--|-0-0----2-2----||-0-0----0-0----|-2-2----2-2---0--|-0-0----0-0----||-2-2-----------|-0-0----2-2---0--|-2-2-----------||-3-3-----------|--------0-0---2--|-3-3-----------|
A5 G D5 Bm7 E5 D/F#|-----------3--|-3-3-----------|--------------2--||-----------3--|-3-3----3-3----|-3------------3--||-2-2----2--0--|-0-0----2-2----|-2------------2--||-2-2----2--0--|-0-0----0-0----|-0----2-2-(2)-0--||-0-0----0--2--|---------------|-2----2-2-(2)-0--||-----------3--|-3-3-----------|------0-0-(0)-2--|
1. G D5 A5 Csus2 2/4 4/4|-3-3-----------|------------|-------|||-3-3----3-3----|------------|-3----o|||-0-0----2-2----|-2--(2)-----|-0-----|||-0-0----0-0----|-2--(2)-----|-------|||-2-2-----------|-0--(0)-0-2-|-3----o|||-3-3-----------|------------|-------||
2. G D5 A5 Csus2 2/4 4/4|-3-3-----------|------|--------------|||-3-3----3-3----|------|-3------------|||-0-0----2-2----|-2----|-0------------|||-0-0----0-0----|-2----|--------------|||-2-2-----------|-0----|-3-------14\--|||-3-3-----------|------|--------------||
Guitar Solo G5 B5 D5A5 2/4|----------------------------|--------------||----------------------------|--------------||----4-(4)-7-----------------|--------------||-5--4-(4)-7-7---------------|--------------||-5--2-(2)-5-7---------------|--------------||-3----------5---------------|--------------|
| | Gtr II | ~~~~~~~~~~~ |
|--------------15b17==(15)r--|-15-----------||----------------------------|-------15b17==||----------------------------|--------------||----------------------------|--------------||----------------------------|--------------||----------------------------|--------------|
G5 B5 D5A5 4/4 2/4|----------------------------|--------------------------||----------------------------|--------------------------||----------4-(4)-7-----------|--------------------------||---5------4-(4)-7---7-------|--------------------------||---5------2-(2)-5---7-------|--------------------------||---3----------------5-------|--------------------------|
| | ~~~~~~~~~~~~~~~~~~~~~~~~~~~~ |
|------15----------(15)------|-(15)---------------------||-(15)-----------------------|------15r(15)-(15)-13-15--||----------------------------|--------------------------||----------------------------|--------------------------||----------------------------|--------------------------||----------------------------|--------------------------|
G5 B5 D5A5 C#5 E5 G5 B5 D5A5 4/4|------------------------------------|-------------------------------------||------------------------------------|-------------------------------------||------------4--(4)-7------6-(6)-(b9)--|----4-(4)-7--------------------------||--5---------4--(4)-7---7--6-(6)-(b9)--|-5--4-(4)-7--7-----------------------||--5---------2--(2)-5---7--4-(4)-7---|-5--2-(2)-5--7-----------------------||--3--------------------5------------|-3-----------5-----------------------|
| | ~~~~~~~~~~~~~~~~~ |
|------------------------------------|----------------------5p3-5p3-5p3----||-13b15r(13)---(13)---(13)-------8b10|(8)---------(8)r==(8)-------------5p=||------------------------------------|-------------------------------------||------------------------------------|-------------------------------------||------------------------------------|-------------------------------------||------------------------------------|-------------------------------------|
2/4|---------------------------||---------------------------||---------------------------||---------------------------||---------------------------||---------------------------|
| | |-3-| |----6----| |
|-----3---------------------||-4h5-----------------------||-------7p5h7p5---5---------||---------------7---7p5h7p5-||---------------------------||---------------------------|
G5 B5 D5 A5 4/4 2/4|-----------------------------------------------|--------------||-----------------------------------------------|--------------||-----4-(4)--7----------------------------------|--------------||--5--4-(4)--7-------------7--------------------|--------------||--5--2-(2)--5-------------7--------------------|--------------||--3-----------------------5--------------------|--------------|
| | ____ | ~~~ ~~~ |
|-----------------------------------------------|--------------||-----------------------------------------------|--------------||-----------[5]b7==([5])r([5])------------------|--------------||-[5]---[5]--------------------7----5-(5)-------|--------------||--------------------------------7--------3---5-|-3-[3]-5------||-------------------------------------------5---|---------3----|
G5 B5 D5A5 C#5 E5 4/4|-------------------------------------------------------||-------------------------------------------------------||-----4-(4)-----7----------------6----(6)-------(b9)------||--5--4-(4)-----7--7-------------6----(6)-------(b9)------||--5--2-(2)-----5--7-------------4----(4)-------7-------||--3---------------5------------------------------------|
| | / | |--3--| |---3---| |--3--| |--3--| |
|-------------------------------------------------17h1(b9)||-------------------------------------------17h20-------||-------------------------------------17h1(b9)------------||-----------------------------17h==1(b9)------------------||-----------------------15h17---------------------------||-(3)---(3)s18\---15h17---------------------------------|
Csus2 2/4 4/4|----------------|--------------------------|||----------------|--3-----------------------|||----------------|--0-----------------------|||--------------4-|--------------------------|||------5--(5)----|--3---------------10\-----|||--7-------------|--------------------------||
| | ~~~~ |
|----------------|--------------------------|||-------------1(b9)|-19b20=====(19)--(19)r\---|||-16--1(b9)(19)----|--------------------------|||----------------|--------------------------|||----------------|--------------------------|||----------------|--------------------------||
Chorus G D5 A5 E5 D/F# G D5|-3-3-----------|--------------2--|-3-3-----------||-3-3----3-3----|--------------3--|-3-3----3-3----||-0-0----2-2----|-2-2----------2--|-0-0----2-2----||-0-0----0-0----|-2-2----2-2---0--|-0-0----0-0----||-2-2-----------|-0-0----2-2---0--|-2-2-----------||-3-3-----------|--------0-0---2--|-3-3-----------|
A5 G D5 Bm7 E5 D/F#|-----------3--|-3-3-----------|--------------2--||-----------3--|-3-3----3-3----|-3------------3--||-2-2----2--0--|-0-0----2-2----|-2------------2--||-2-2----2--0--|-0-0----0-0----|-0----2-2-(2)-0--||-0-0----0--2--|---------------|-2----2-2-(2)-0--||-----------3--|-3-3-----------|------0-0-(0)-2--|
G D5 A5 Csus2 2/4 4/4|-3-3-----------|------------|------||-3-3----3-3----|------------|-3----||-0-0----2-2----|-2--(2)-----|-0----||-0-0----0-0----|-2--(2)-----|------||-2-2-----------|-0--(0)-0-2-|-3----||-3-3-----------|------------|------|
Csus2 A4 A|----------|----------|--------------|||-3--------|-3--------|-2------------|||-0--------|-2--------|-2-------12\--|||----------|-2--------|-2------------|||-3--------|-0--------|-0------------|||----------|----------|--------------||
Outro G5 B5 D5A5 2/4 Gtr II | | | | | / / / / /
~~ |----3-----||-------------20b22==(20)r--|-20--(20)-17----------------------||---------------------------|-------------20p17----20b22==(20)r||---------------------------|-------------------1(b9)------------||---------------------------|----------------------------------||---------------------------|----------------------------------||---------------------------|----------------------------------|
G5 B5 D5A5 4/4 | | | | | / / / / /
~~~~~~~~~~~~~~~|------------------17-------------------------||-(20)--------(20)----20----------------------||------------------------19b21r(19)p17-1(b9)----||-----------------------------------------1(b9)-||---------------------------------------------||---------------------------------------------|
G5 B5 D5A5 C#5 E5 2/4 4/4 | | | | | | | | / / / / / / / /
~~~~~~~~~~~|-------------------------|--------------------------||-------------------------|--------------------------||-17b1(b9)17b19==(17)r(17)--|-(17)--------(17)\--------||-------------------------|--------------------------||-------------------------|--------------------------||-------------------------|--------------------------|
G5 B5 D5A5 2/4 | | | | | / / / / /
|--3--||---------------------------|-------------------||-------------10b13====(10)-|-(10)---(10)r10p8--||---------------------------|-------------------||---------------------------|-------------------||---------------------------|-------------------||---------------------------|-------------------|
G5 B5 D5A5 G5 B5 D5A5 C#5 E5 4/4 2/4 4/4 | | | | | | | | | | | | | / / / / / / / / / / / / /
~~~ ~~~~~~~~~~~~ |-3--||--------------------------|--------|----------------------------||-10---------10p====8h10p8-|-(8)----|-(8)--------(8)\------------||--------------------------|--------|----------------------------||--------------------------|--------|----------------------------||--------------------------|--------|----------------------------||--------------------------|--------|----------------------/17s7s|
G5 B5 D5A5 | | | | | / / / / /
|-----15b17---(15)---------------------------||-----------------------15-13----15-13-------||--------------------14-------14-------14----||-----------------------------------------14-||--------------------------------------------||-15-----------------------------------------|
G5 B5 D5A5 2/4 4/4 2/4 | | | | | / / / / /
|-3-| |--3--||--------------------|-----------------------|------------------||--------------------|-----------------19b20-|-(19)-17-16-15-16-||-12-14--------------|-----------------------|------------------||-------12----14-----|-----------------------|------------------||----------15----12\-|-----------------------|------------------||--------------------|-----------------------|------------------|
G5 B5 D5A5 C#5 E5 4/4 | | | | | | | | / / / / / / / /
~~~ |-3-||-----20b23---(20)---(20)-17---------||-17---------------------------------||------------------------------------||------------------------------------||------------------------------------||------------------------------------|
G5 B5 D5 A5 | | | | | / / / / /
|------6------| |-----5-----||-(17)-17-20p17----19p17----17p15h17p15------------------------------------||---------------20-------17-------------17---17h19h20p19p17p15h17s15-17-15-||--------------------------------------------------------------------------||--------------------------------------------------------------------------||--------------------------------------------------------------------------||--------------------------------------------------------------------------|
2/4 |------6-------| |-----5-----||------------------------------------------------||--------13h15h16p15p13-13p10h13p10----10-8-10-8-||17==-14----------------------------12-----------||------------------------------------------------||------------------------------------------------||------------------------------------------------|
G5 B5 D5 A5 4/4 E. S +E E E E Q | | | | | / / / / /
~~~ ~~~~~~~~|-10--10--8---------------------------*||-----------10-13b15==(13)r(13)-(13)--*||-------------------------------------*||-------------------------------------*||-------------------------------------*||-------------------------------------*|Please Rate
Tap to rate this tab
 
# A B C D E F G H I J K L M N O P Q R S T U V W X Y Z