Warren Zevon - Carmelita tab

Tabber: PSYCHELINGUS
Tempo = 94
ZEVON

Legend
L - tied note
x - dead note
h - hammer on/pull off
b - bend
s - slide
~ - vibrato
g - ghost note
> - accentuated note
t - trill
M - palm mute
. - staccato
P - popping (bass)
S - slapping (bass)
+ - tapping
W - wide vibrato
< - fade in
w - whammy bar
= - tremolo picking
v - brush up
^ - brush down
V - pick stroke up
n - pick stroke down


E |-------|-------|-------|-------|--------------------0--2----|B |-------|-------|-------|-------|----------------------------|G |-------|-------|-------|-------|----------------------------|D |-------|-------|-------|-------|----------------------------|A |-------|-------|-------|-------|----------------------------|E |-------|-------|-------|-------|----------------------------|
--2-----4--4L-4-----4-----4--4-----4L-4-----2-------|----------------------------------------------------|----------------------------------------------------|----------------------------------------------------|----------------------------------------------------|----------------------------------------------------|
--2-----0--0L-0-----------------------0-----2-------|----------------------------------------------------|----------------------------------------------------|----------------------------------------------------|----------------------------------------------------|----------------------------------------------------|
--4-----4--4--2--2--0--0----|--------------------2--4----|----------------------------|----------------------------|----------------------------|----------------------------|----------------------------|----------------------------|----------------------------|----------------------------|----------------------------|----------------------------|
--5-----------5--5--------------------------5-------|----------------------------------------------------|----------------------------------------------------|----------------------------------------------------|----------------------------------------------------|----------------------------------------------------|
--7-----------5-----4-----2-----------------2--2----|----------------------------------------------------|----------------------------------------------------|----------------------------------------------------|----------------------------------------------------|----------------------------------------------------|
--2-----5-----------------4--2--4-----------0-------|----------------------------------------------------|----------------------------------------------------|----------------------------------------------------|----------------------------------------------------|----------------------------------------------------|
-----------------------12---|--------------------12-12---|--------------------13------|----------------------------|----------------------------|----------------------------|
--12-11-12----------------12----------12-11-9-------|--14-12-14----------------14----------14-12-10------|----------------------------------------------------|----------------------------------------------------|----------------------------------------------------|----------------------------------------------------|
--12-12L------12L---------12----------------9-------|--14-14L------14L---------14----------------10------|----------------------------------------------------|----------------------------------------------------|----------------------------------------------------|----------------------------------------------------|
--12----12------------------------------------------|--12----12----------------12------------------------|--------------------------13-14-13----------14------|-----------------------------16-14------------------|----------------------------------------------------|----------------------------------------------------|
-----------------------5----|--------------------9--7----|--14----------------9-------|----------------------------|--12------------------------|----------------------------|
--7-----------7-----------7--9--------7-------------|--9-----------9-----------9--10-------9-------------|----------------------------------------------------|----------------------------------------------------|----------------------------------------------------|----------------------------------------------------|
--7-----------------5--5----|--9-----10-10-------7--7----|--------11-11---------------|----------------------------|----------------------------|----------------------------|
--5-----------------------7-----------------------9-----------------------7-----|--7-----------------------9-----------------------10----------------------9-----|--------------------------------------------------------------------------------|--------------------------------------------------------------------------------|--------------------------------------------------------------------------------|--------------------------------------------------------------------------------|
--------------------------------------------------------------------|------------------------------10-------9----------------------------|------------------------------11-------9----------------------------|--------------------------------------------------------------------|--------------------------------------------------------------------|--------------------------------------------------------------------|
----------------|--------------------0--2----|--9-------------|----------------------------|--9-------------|----------------------------|----------------|----------------------------|----------------|----------------------------|----------------|----------------------------|
--2--4-----4L-4L----4L----4L-4-----4L-4-----2-------|----------------------------------------------------|----------------------------------------------------|----------------------------------------------------|----------------------------------------------------|----------------------------------------------------|
--2-----0--0L-0-----------------------0-----2-------|----------------------------------------------------|----------------------------------------------------|----------------------------------------------------|----------------------------------------------------|----------------------------------------------------|
--4L----------4L----4-----2L-2--2L----2-----0-------|----------------------------------------------------|----------------------------------------------------|----------------------------------------------------|----------------------------------------------------|----------------------------------------------------|
-----------------------------------------------4----|----------------------------------------------------|----------------------------------------------------|----------------------------------------------------|----------------------------------------------------|----------------------------------------------------|
--5--5--5L----5-----5-----5-----5L----5-----5-------|----------------------------------------------------|----------------------------------------------------|----------------------------------------------------|----------------------------------------------------|----------------------------------------------------|
--7-----------5--4L-4-----2-----------------2--2----|----------------------------------------------------|----------------------------------------------------|----------------------------------------------------|----------------------------------------------------|----------------------------------------------------|
--2--5L-5--5--4--2-----0----|-----------------------12---|----------------------------|--------------------12-12---|----------------------------|--------------------13------|----------------------------|----------------------------|----------------------------|----------------------------|----------------------------|----------------------------|
--12-11-12----------------12----------12-11-9-------|--14-12-14----------------14----------14-12-10------|----------------------------------------------------|----------------------------------------------------|----------------------------------------------------|----------------------------------------------------|
--12-12L------12L---------12----------------9-------|--14-14L------14L---------14----------------10------|----------------------------------------------------|----------------------------------------------------|----------------------------------------------------|----------------------------------------------------|
--12----12------------------------------------------|--12----12----------------12------------------------|--------------------------13-14-13----------14------|-----------------------------16-14------------------|----------------------------------------------------|----------------------------------------------------|
-----------------------5----|--------------------9--7----|--14----------------9-------|----------------------------|--12------------------------|----------------------------|
--7-----------7-----------7--9--------7-------------|--9-----------9-----------9--10-------9-------------|----------------------------------------------------|----------------------------------------------------|----------------------------------------------------|----------------------------------------------------|
--7-----------------5--5----|--9-----10-10-------7--7----|--------11-11---------------|----------------------------|----------------------------|----------------------------|
--5-----------------------7-----------------------9-----------------------7-----|--7-----------------------9-----------------------10----------------------9-----|--------------------------------------------------------------------------------|--------------------------------------------------------------------------------|--------------------------------------------------------------------------------|--------------------------------------------------------------------------------|
--------------------------------------------------------------------|------------------------------10-------9----------------------------|------------------------------11-------9----------------------------|--------------------------------------------------------------------|--------------------------------------------------------------------|--------------------------------------------------------------------|
----------------|-------|-------|-------|-------|-------|-------|-------|--9-------------|-------|-------|-------|-------|-------|-------|-------|--9-------------|-------|-------|-------|-------|-------|-------|-------|----------------|-------|-------|-------|-------|-------|-------|-------|----------------|-------|-------|-------|-------|-------|-------|-------|----------------|-------|-------|-------|-------|-------|-------|-------|
-------|-------|-------|-------|-------|-------|-------|-------|-------|-------|-------|-------|-------|-------|-------|-------|-------|-------|-------|-------|-------|-------|-------|-------|-------|-------|-------|-------|-------|-------|-------|-------|-------|-------|-------|-------|-------|-------|-------|-------|-------|-------|-------|-------|-------|-------|-------|-------|-------|-------|-------|-------|-------|-------|-------|-------|-------|-------|-------|-------|
-------|--------------------0--2----|-------|----------------------------|-------|----------------------------|-------|----------------------------|-------|----------------------------|-------|----------------------------|
--2-----4L-4L-4-----4-----4--4L----4L-4-----2-------|----------------------------------------------------|----------------------------------------------------|----------------------------------------------------|----------------------------------------------------|----------------------------------------------------|
--2-----0L-0L-0-----------------------0-----2-------|----------------------------------------------------|----------------------------------------------------|----------------------------------------------------|----------------------------------------------------|----------------------------------------------------|
--4-----4--4L-4--2--0L-0----|--------------------2--4----|----------------------------|--4-------------------------|----------------------------|----------------------------|----------------------------|----------------------------|----------------------------|----------------------------|----------------------------|----------------------------|
--5-----------5--5--------------------------5-------|----------------------------------------------------|----------------------------------------------------|----------------------------------------------------|----------------------------------------------------|----------------------------------------------------|
--7-----------5-----4-----2-----------------2--2----|----------------------------------------------------|----------------------------------------------------|----------------------------------------------------|----------------------------------------------------|----------------------------------------------------|
--2-----5-----------------4--2--4-----------0-------|----------------------------------------------------|----------------------------------------------------|----------------------------------------------------|----------------------------------------------------|----------------------------------------------------|
-----------------------12---|--------------------12-12---|--------------------13------|----------------------------|----------------------------|----------------------------|
--12-11-12----------------12----------12-11-9-------|--14-12-14----------------14----------14-12-10------|----------------------------------------------------|----------------------------------------------------|----------------------------------------------------|----------------------------------------------------|
--12-12L------12L---------12----------------9-------|--14-14L------14L---------14----------------10------|----------------------------------------------------|----------------------------------------------------|----------------------------------------------------|----------------------------------------------------|
--12----12------------------------------------------|--12----12----------------12------------------------|--------------------------13-14-13----------14------|-----------------------------16-14------------------|----------------------------------------------------|----------------------------------------------------|
-----------------------5----|--------------------9--7----|--14----------------9-------|----------------------------|--12------------------------|----------------------------|
--7-----------7-----------7--9--------7-------------|--9-----------9-----------9--10-------9-------------|----------------------------------------------------|----------------------------------------------------|----------------------------------------------------|----------------------------------------------------|
--7-----------------5--5----|--9-----10-10-------7--7----|--------11-11---------------|----------------------------|----------------------------|----------------------------|
--5-----------------------7-----------------------9-----------------------7-----|--7-----------------------9-----------------------10----------------------9-----|--------------------------------------------------------------------------------|--------------------------------------------------------------------------------|--------------------------------------------------------------------------------|--------------------------------------------------------------------------------|
--------------------------------------------------------------------|------------------------------10-------9----------------------------|------------------------------11-------9----------------------------|--------------------------------------------------------------------|--------------------------------------------------------------------|--------------------------------------------------------------------|
----------------|-----------------------12---|--9-------------|--------------------12-12---|--9-------------|--------------------13------|----------------|----------------------------|----------------|----------------------------|----------------|----------------------------|
--12-11-12----------------12----------12-11-9-------|--14-12-14----------------14----------14-12-10------|----------------------------------------------------|----------------------------------------------------|----------------------------------------------------|----------------------------------------------------|
--12-12L------12L---------12----------------9-------|--14-14L------14L---------14----------------10------|----------------------------------------------------|----------------------------------------------------|----------------------------------------------------|----------------------------------------------------|
--12----12------------------------------------------|--12----12----------------12------------------------|--------------------------13-14-13----------14------|-----------------------------16-14------------------|----------------------------------------------------|----------------------------------------------------|
-----------------------5----|--------------------9--7----|--14----------------9-------|----------------------------|--12------------------------|----------------------------|
--7-----------7-----------7--9--------7-------------|--9-----------9-----------9--10-------9-------------|----------------------------------------------------|----------------------------------------------------|----------------------------------------------------|----------------------------------------------------|
--7-----------------5--5----|--9-----10-10-------7--7----|--------11-11---------------|----------------------------|----------------------------|----------------------------|
--5-----------------------7-----------------------9-----------------------7-----|--7-----------------------9-----------------------10----------------------9-----|--------------------------------------------------------------------------------|--------------------------------------------------------------------------------|--------------------------------------------------------------------------------|--------------------------------------------------------------------------------|
--------------------------------------------------------------------|------------------------------10-------9----------------------------|------------------------------11-------9----------------------------|--------------------------------------------------------------------|--------------------------------------------------------------------|--------------------------------------------------------------------|
----------------|-------|-------|-------||--9-------------|-------|-------|-------||--9-------------|-------|-------|-------||----------------|-------|-------|-------||----------------|-------|-------|-------||----------------|-------|-------|-------||
Tap to rate this tab
 
# A B C D E F G H I J K L M N O P Q R S T U V W X Y Z