Wasp - Animal Fuck Like A Beast tab

W.A.S.P.
Animal (Fuck like a beast)                 


                                                                
                                                                  
D#||-----------|------------------------|------------------------|A#||-----------|------------------------|------------------------|F#||-----------|---------------------5--|------------------------|C#||-----------|---------------------5--|---------------------7--|G#||--5--4--2--|------------------------|---------------------7--|D#||--3--2--0--|------0--0--0--0--0-----|------0--0--0--0--0-----|
------------------------|------------------------|------------------------|------------------------|------------------------|------------------------|------------------------|------------------------|---------------------5--|---------------------5--|----4--5--7----5--4--9--|---------------------5--|---------------------5--|----4--5--7----5--4--7--|------------------------|------0--0--0--0--0-----|---------------------0--|------0--0--0--0--0-----|
------------------------|------------------------|------------------------|------------------------|------------------------|------------------------|------------------------|------------------------|------------------------|---------------------7--|---------------------5--|----4--5--7----5--4-----|---------------------7--|---------------------5--|----4--5--7----5--4--2--|------0--0--0--0--0-----|------0--0--0--0--0-----|---------------------0--|
------------------------|------------------------|------------------------|------------------------|------------------------|------------------------|---------------------5--|------------------------|------------------------|---------------------5--|---------------------7--|---------------------5--|------------------------|---------------------7--|---------------------5--|------0--0--0--0--0-----|------0--0--0--0--0-----|------0--0--0--0--0-----|
------------------------|------------------------|------------------------|------------------------|------------------------|------------------------|------------------------|---------------------5--|------------------------|----4--5--7----5--4--9--|---------------------5--|---------------------7--|----4--5--7----5--4--7--|------------------------|---------------------7--|---------------------0--|------0--0--0--0--0-----|------0--0--0--0--0-----|
------------------------|------------------------|------------------------|------------------------|------------------------|------------------------|------------------------|------------------------|---------------------5--|---------------------5--|----4--5--7----5--4-----|---------------------5--|---------------------5--|----4--5--7----5--4--2--|------------------------|------0--0--0--0--0-----|---------------------0--|------0--0--0--0--0-----|
------------------------|------------------------|------------------------|------------------------|------------------------|------------------------|------------------------|------------------------|------------------------|---------------------7--|---------------------5--|----4--5--7----5--4--9--|---------------------7--|---------------------5--|----4--5--7----5--4--7--|------0--0--0--0--0-----|------0--0--0--0--0-----|---------------------0--|
------------------------|------------------------|------------------|------------------------|------------------------|------------------|---------------------5--|------------------------|------------------|---------------------5--|---------------------2--|------------------|------------------------|---------------------0--|------------------|------0--0--0--0--0-----|------0--0--0--0--0-----|------------------|
--------------------------|------------------------|------------------|--------------------------|------------------------|------------------|--------------------------|------------------------|------------------|--------------------------|--9--9--9--7----7--9----|------------------|--------------------------|--7--7--7--5----5--7----|------------------|--3--0--0--5--0--0--3--0--|--0--0--0----------0----|------------------|
---------------------|------------------|------------------------|---------------------|------------------|------------------------|--7------------------|------------------|------------------------|--5------7-----------|------------------|--9--9--9--7----7--9----|---------5------7----|------------------|--7--7--7--5----5--7----|----------------5----|------------------|--0--0--0----------0----|
------------------|---------------------|------------------|------------------|---------------------|------------------|------------------|--7------------------|------------------|------------------|--5------7-----------|------------------|------------------|---------5------7----|------------------|------------------|----------------5----|------------------|
------------------------|------------------|---------------------|------------------------|------------------|---------------------|------------------------|------------------|--7------------------|--9--9--9--7----7--9----|------------------|--5------7-----------|--7--7--7--5----5--7----|------------------|---------5------7----|--0--0--0----------0----|------------------|----------------5----|
------------------|------------------------|------------------|------------------|------------------------|------------------|------------------|------------------------|------------------|------------------|--9--9--9--7----7--9----|------------------|------------------|--7--7--7--5----5--7----|------------------|------------------|--0--0--0----------0----|------------------|
---------------------|------------------|---------------------|---------------------|------------------|---------------------|--7------------------|------------------|--7------------------|--5------7-----------|------------------|--5------7-----------|---------5------7----|------------------|---------5------7----|----------------5----|------------------|----------------5----|
------------------|------------------|-------------------------|------------------|------------------|-------------------------|------------------|------------------|----------------------5--|------------------|------------------|----------------------5--|------------------|------------------|--2----------------------|------------------|------------------|--0----0--0--0--0--0-----|
------------------------|------------------------|------------------------|------------------------|------------------------|------------------------|------------------------|------------------------|------------------------|---------------------7--|---------------------5--|----4--5--7----5--4--9--|---------------------7--|---------------------5--|----4--5--7----5--4--7--|------0--0--0--0--0-----|------0--0--0--0--0-----|---------------------0--|
------------------------|------------------------|------------------------|------------------------|------------------------|------------------------|---------------------5--|------------------------|------------------------|---------------------5--|---------------------7--|---------------------5--|------------------------|---------------------7--|---------------------5--|------0--0--0--0--0-----|------0--0--0--0--0-----|------0--0--0--0--0-----|
------------------------|------------------------|------------------------|------------------------|------------------------|------------------------|------------------------|---------------------5--|------------------------|----4--5--7----5--4-----|---------------------5--|---------------------7--|----4--5--7----5--4--2--|------------------------|---------------------7--|---------------------0--|------0--0--0--0--0-----|------0--0--0--0--0-----|
------------------------|------------------------|------------------------|------------------------|------------------------|------------------------|------------------------|------------------------|---------------------5--|---------------------5--|----4--5--7----5--4--9--|---------------------5--|---------------------5--|----4--5--7----5--4--7--|------------------------|------0--0--0--0--0-----|---------------------0--|------0--0--0--0--0-----|
------------------------|------------------|--------------------------|------------------------|------------------|--------------------------|------------------------|------------------|--------------------------|---------------------2--|------------------|--------------------------|---------------------0--|------------------|--------------------------|------0--0--0--0--0-----|------------------|--3--0--0--5--0--0--3--0--|
------------------------|------------------|---------------------|------------------------|------------------|---------------------|------------------------|------------------|--7------------------|--9--9--9--7----7--9----|------------------|--5------7-----------|--7--7--7--5----5--7----|------------------|---------5------7----|--0--0--0----------0----|------------------|----------------5----|
------------------|------------------------|------------------|------------------|------------------------|------------------|------------------|------------------------|------------------|------------------|--9--9--9--7----7--9----|------------------|------------------|--7--7--7--5----5--7----|------------------|------------------|--0--0--0----------0----|------------------|
---------------------|------------------|------------------------|---------------------|------------------|------------------------|--7------------------|------------------|------------------------|--5------7-----------|------------------|--9--9--9--7----7--9----|---------5------7----|------------------|--7--7--7--5----5--7----|----------------5----|------------------|--0--0--0----------0----|
------------------|---------------------|------------------|------------------|---------------------|------------------|------------------|--7------------------|------------------|------------------|--5------7-----------|------------------|------------------|---------5------7----|------------------|------------------|----------------5----|------------------|
------------------------|------------------|---------------------|------------------------|------------------|---------------------|------------------------|------------------|--7------------------|--9--9--9--7----7--9----|------------------|--5------7-----------|--7--7--7--5----5--7----|------------------|---------5------7----|--0--0--0----------0----|------------------|----------------5----|
------------------|--------------------|--------------------|------------------|--------------------|--------------------|------------------|--9------7----------|--7-----------------|------------------|--7------5----------|--5-----------------|------------------|--------------------|---------7----------|------------------|--------------------|---------5----------|
--------------------|-------------------|--------------------|--------------------|-------------------|--------------------|--------------------|-------------------|--9------7----------|--9-----------------|--9----------------|--7------5----------|--7--------------5--|--7----------------|--------------------|--0-----------------|--0----------------|--------------------|
--------------------|---------------------|-----------------------------------|--------------------|---------------------|-----------------------------8-----|--7-----------------|---------------------|-----------9--------9-----------9--|--5-----------------|---------------------|-----5--9-----5--------5-----------|---------7----------|--9------9------9----|--7--------------7--------7--------|---------5----------|--7------7------7----|-----------------------------------|
-------------------------|--------------12/14/12--|--8~---------8-10-8------|------------------------|--------------------9-9~-|------------------------|-------------------------|------------------------|-------------------------|------------------------|-------------------------|------------------------|
--17b-------15--17--15--17--15--|----------------12----|--------------------------------|--17~-----------------|--------------------------------|----------------------|--------------------------------|----------------------|--------------------------------|----------------------|--------------------------------|----------------------|
---------------------------|-------------------------|-----5------------------5--|-------------12--13--15--|--4----4-7-4-6-4-4b--------|--4b---------------------|---------------------------|-------------------------|---------------------------|-------------------------|---------------------------|-------------------------|
--------------------------|----------------------|------------------------|--15b-------15r---12------|--------15b-----------|------------------------|----------------------14--|--12------------------|------------------------|--------------------------|----------------------|--9--9--9--7----7--9----|--------------------------|----------------------|--7--7--7--5----5--7----|--------------------------|----------------------|--0--0--0----------0----|
------------------|---------------------|------------------|------------------|---------------------|------------------|------------------|--7------------------|------------------|------------------|--5------7-----------|------------------|------------------|---------5------7----|------------------|------------------|----------------5----|------------------|
------------------------|------------------|---------------------|------------------------|------------------|---------------------|------------------------|------------------|--7------------------|--9--9--9--7----7--9----|------------------|--5------7-----------|--7--7--7--5----5--7----|------------------|---------5------7----|--0--0--0----------0----|------------------|----------------5----|
------------------|------------------------|------------------|------------------|------------------------|------------------|------------------|------------------------|------------------|------------------|--9--9--9--7----7--9----|------------------|------------------|--7--7--7--5----5--7----|------------------|------------------|--0--0--0----------0----|------------------|
---------------------|------------------|------------------------|---------------------|------------------|------------------------|--7------------------|------------------|------------------------|--5------7-----------|------------------|--9--9--9--7----7--9----|---------5------7----|------------------|--7--7--7--5----5--7----|----------------5----|------------------|--0--0--0----------0----|
------------------|---------------------|------------------|------------------|------------------|---------------------|------------------|------------------|------------------|--7------------------|------------------|------------------|------------------|--5------7-----------|------------------|------------------|------------------|---------5------7----|------------------|------------------|------------------|----------------5----|------------------|------------------|
--------------------|--------||--------------------|--------||--------------------|--------||--9---9-------------|--------||--7---7-------------|--------||--0---0-------------|--------||
Tabbed by Ed_Hunter
Tap to rate this tab
 
# A B C D E F G H I J K L M N O P Q R S T U V W X Y Z