Wasp - Sleeping In The Fire tab version 1

W.A.S.P.
Sleeping in the fire
Album W.A.SP.

Gtr I (Eb Ab Db Gb Bb Eb) - 'Randy Piper acoustic'
Gtr II (Eb Ab Db Gb Bb Eb) - 'Chris Holmes acoustic'
Gtr III (Eb Ab Db Gb Bb Eb) - 'Randy Piper dist.'
Gtr IV (Eb Ab Db Gb Bb Eb) - 'Chris Homes dist.'

Here is a better version than whats already on here, in a text tab so all of you can get it.

Intro Moderate Rock Q=90 E5 E5 E5 E5 4/4 Gtrs I, II|---------0-------|---------0-------|---------0-------|---------0-------||-----------0-----|-----------0-----|-----------0-----|-----------0-----||-------------9---|-------------9---|-------------9---|-------------9---||-----9---------9-|-----9---------9-|-----9---------9-|-----9---------9-||---7---7---------|---7---7---------|---7---7---------|---7---7---------||-0---------------|-0---------------|-0---------------|-0---------------|
Verse E5 E5 D5 D5|---------0-------|---------0-------|---------0-------|---------0-------||-----------0-----|-----------0-----|-----------0-----|-----------0-----||-------------9---|-------------9---|-----7-------7---|-----7-------7---||-----9---------9-|-----9---------9-|---7---7-------7-|---7---7-------7-||---7---7---------|---7---7---------|-5---------------|-5---------------||-0---------------|-0---------------|-----------------|-----------------|
C5 C5 Em Emadd9|---------0-------|---------0-------|---------0-------|---------2-----0---||-----------0-----|-----------0-----|-----------0-----|-----------0-----0-||-----5-------5---|-----5-------5---|-------0-----0---|-------------0-----||---5---5-------5-|---5---5-------5-|-----2---------2-|-------2-----------||-3---------------|-3---------------|---2-------------|-----2-------------||-----------------|-----------------|-0---------------|--0----------------|
|
| Gtrs III, IV| >|-----------------|-----------------|-----------------|-------------------||-----------------|-----------------|-----------------|-------------------||-----------------|-----------------|-----------------|-------------------||-----------------|-----------------|-2---------------|-(2)---------------||-----------------|-----------------|-2---------------|-(2)---------------||-----------------|-----------------|-0---------------|-(0)---------------|
E5 E5 D5 D5|---------0-------|---------0-------|---------0-------|---------0-------||-----------0-----|-----------0-----|-----------0-----|-----------0-----||-------------9---|-------------9---|-----7-------7---|-----7-------7---||-----9---------9-|-----9---------9-|---7---7-------7-|---7---7-------7-||---7---7---------|---7---7---------|-5---------------|-5---------------||-0---------------|-0---------------|-----------------|-----------------|
C5 C5 Em Emadd9|---------0-------|---------0-------|---------0-------|-------2-----0---||-----------0-----|-----------0-----|-----------0-----|---------0-----0-||-----5-------5---|-----5-------5---|-------0-----0---|-----------0-----||---5---5-------5-|---5---5-------5-|-----2---------2-|-----2-----------||-3---------------|-3---------------|---2-------------|---2-------------||-----------------|-----------------|-0---------------|-0---------------|
|
| Gtrs III, IV| PM----||-----------------|-----------------|-----------------|-----------------||-----------------|-----------------|-----------------|-----------------||-----------------|-----------------|-----------------|-----------------||-----------------|-----------------|-----------------|-2-2-2-2-2-------||-----------------|-----------------|---------2-2-2-2-|-2-2-2-2-2-------||-----------------|-----------------|-0-0-0-0-0-0-0-0-|-0-0-0-0-0-------|
Chorus 1 E5 E5 C5 C5 Gtrs III, IV||--------------|-------------|-------------|--------------|||o-------------|-------------|-------------|--------------|||--------------|-------------|-5---5-5---5-|-5---5-5---5--|||--2---2-2---2-|-2---2-2---2-|-5---5-5---5-|-5---5-5---5--|||o-2---2-2---2-|-2---2-2---2-|-3---3-3---3-|-3---3-3---3--|||--0---0-0---0-|-0---0-0---0-|-------------|--------------|
D5 D5 E5 E5|-------------|-------------|-------------|--------------|||-------------|-------------|-------------|-------------o|||-7---7-7---7-|-7---7-7---7-|-------------|--------------|||-7---7-7---7-|-7---7-7---7-|-2---2-2---2-|-2---2-2---2--|||-5---5-5---5-|-5---5-5---5-|-2---2-2---2-|-2---2-2---2-o|||-------------|-------------|-0---0-0---0-|-0---0-0---0--||
Interlude C5 C5 N.C. N.C. Gtr III||-----------|-------------|-------------------|---------------------||||o----------|-------------|-------------------|--------------------o||||--5--------|-------------|-------------------|---------------------||||--5--------|-------------|-5-4---------------|-5-4-----------------||||o-3--------|-------------|-----7-5-7-5-7-----|-----7-5-7-5-7------o||||-----------|--------/12--|----------------0--|----------------0----||
|
| Gtr IV||-----------|-------------|-------------------|---------------------||||o----------|-------------|-------------------|--------------------o||||-----------|-5-----------|-------------------|---------------------||||-----------|-5-----------|-5-4---------------|-5-4-----------------||||o----------|-3-----------|-----7-5-7-5-7-----|-----7-5-7-5-7------o||||-----------|-------------|----------------0--|----------------0----||
C5 C5 A5 B5 B5|----------|-------------|----------|-----------------||----------|-------------|----------|-----------------||-5--------|-(5)------2--|-4--------|-4-4-4-4-4-4-4-4-||-5--------|-(5)------2--|-4--------|-4-4-4-4-4-4-4-4-||-3--------|-(3)------0--|-2--------|-2-2-2-2-2-2-2-2-||----------|-------------|----------|-----------------|
|
|----------|-------------|----------|-----------------||----------|-------------|----------|-----------------||----------|--5-------2--|-4--------|-4-4-4-4-4-4-4-4-||----------|--5-------2--|-4--------|-4-4-4-4-4-4-4-4-||----------|--3-------0--|-2--------|-2-2-2-2-2-2-2-2-||----------|-------------|----------|-----------------|
Guitar Solo E5 E5 Gtr III ~~|-12--------12---------|-12-14-15-14-12h14p12h14----12-12----||-15b17r====15b17======|=========================15----------||----------------------|-------------------------------------||----------------------|-------------------------------------||----------------------|-------------------------------------||----------------------|-------------------------------------|
|
| Gtr IV|----------------------|-------------------------------------||----------------------|-------------------------------------||----------------------|-------------------------------------||--2------2--2-------2-|--2-----------------2--------2-----2-||--2------2--2-------2-|--2-----------------2--------2-----2-||--0------0--0-------0-|--0-----------------0--------0-----0-|
C5 C5 ~~|-12------------------------x-|-12-14-15-14-12h14p12h14----12-12----||-15b17======[15]b17======x---|-------------------------15----------||-----------------------------|-------------------------------------||-----------------------------|-------------------------------------||-----------------------------|-------------------------------------||-----------------------------|-------------------------------------|
|
|-----------------------------|-------------------------------------||-----------------------------|-------------------------------------||--5-------5---5--------5-----|--5-----------------5--------5-----5-||--5-------5---5--------5-----|--5-----------------5--------5-----5-||--3-------3---3--------3-----|--3-----------------3--------3-----3-||-----------------------------|-------------------------------------|
D5 ~~|-14-----14-----||---------------||---------------||---------------||---------------||---------------|
|
|---------------||---------------||--7---7--7---7-||--7---7--7---7-||--5---5--5---5-||---------------|
D5|-14-15-17-15-14h15p14h15----14h15p14h15----14h15p14h15----14-15-||-------------------------15-------------15-------------15-------||----------------------------------------------------------------||----------------------------------------------------------------||----------------------------------------------------------------||----------------------------------------------------------------|
|
|----------------------------------------------------------------||----------------------------------------------------------------||--7-----------------7--------7--------------------------7-------||--7-----------------7--------7--------------------------7-------||--5-----------------5--------5--------------------------5-------||----------------------------------------------------------------|
E5|---------------12-14-15-14---||-15b17======15---------------||-----------------------------||-----------------------------||-----------------------------||-----------------------------|
|
|-----------------------------||-----------------------------||-----------------------------||--2-------2--2-------------2-||--2-------2--2-------------2-||--0-------0--0-------------0-|
E5|----12-14-15-15-14-12----15-14-12----15-14-12----||-15-------------------15----------15----------15-||-------------------------------------------------||-------------------------------------------------||-------------------------------------------------||-------------------------------------------------|
|
|-------------------------------------------------||-------------------------------------------------||-------------------------------------------------||--2-----------------2-----2-----------------2----||--2-----------------2-----2-----------------2----||--0-----------------0-----0-----------------0----|
E5 E5 ~~~~~~~ ~~|-----------------------|-12-14-15-14-12h14p12h14----12-12----||-15b17r====[15]b17-----|-------------------------15----------||-----------------------|-------------------------------------||-----------------------|-------------------------------------||-----------------------|-------------------------------------||-----------------------|-------------------------------------|
|
|-----------------------|-------------------------------------||-----------------------|-------------------------------------||-----------------------|-------------------------------------||--2------2---2-------2-|--2-----------------2--------2-----2-||--2------2---2-------2-|--2-----------------2--------2-----2-||--0------0---0-------0-|--0-----------------0--------0-----0-|
C5 C5 ~~ ~~|-17b19r=(17)-17p15h17-----|-12-14-15-14-12h14p12h14----12-12-----||--------------------------|-------------------------15-----------||--------------------------|--------------------------------------||--------------------------|--------------------------------------||--------------------------|--------------------------------------||--------------------------|--------------------------------------|
|
|--------------------------|--------------------------------------||--------------------------|--------------------------------------||--5-----------5-----5---5-|--5-----------------5--------5-----5--||--5-----------5-----5---5-|--5-----------------5--------5-----5--||--3-----------3-----3---3-|--3-----------------3--------3-----3--||--------------------------|--------------------------------------|
D5 4/4|-12-14-12-15-12-14-12----12-14-12-15-12-14-12----||----------------------15----------------------15-||-------------------------------------------------||-------------------------------------------------||-------------------------------------------------||-------------------------------------------------|
|
|-------------------------------------------------||-------------------------------------------------||--7-----------------7-----7-----------------7----||--7-----------------7-----7-----------------7----||--5-----------------5-----5-----------------5----||-------------------------------------------------|
D5|-15p14p12-15p14p12-15p14p12-15p14p12-15p14p12-15p14p12-15p14p12-15p14p12--||--------------------------------------------------------------------------||--------------------------------------------------------------------------||--------------------------------------------------------------------------||--------------------------------------------------------------------------||--------------------------------------------------------------------------|
|
|--------------------------------------------------------------------------||--------------------------------------------------------------------------||--7--------------------------7--------7--------------------------7--------||--7--------------------------7--------7--------------------------7--------||--5--------------------------5--------5--------------------------5--------||--------------------------------------------------------------------------|
E5|-------------------------------------------------------------------------------------------------||-------------------------------------------------------------------------------------------------||-16p14p12----16p14p12----16p14p12----16p14p12----16p14p12----16p14p12----16p14p12----16p14p12----||----------16----------16----------16----------16----------16----------16----------16----------16-||-------------------------------------------------------------------------------------------------||-------------------------------------------------------------------------------------------------|
|
|-------------------------------------------------------------------------------------------------||-------------------------------------------------------------------------------------------------||-------------------------------------------------------------------------------------------------||--2-----------------------------------2-----------2-----------------------------------2----------||--2-----------------------------------2-----------2-----------------------------------2----------||--0-----------------------------------0-----------0-----------------------------------0----------|
E5|-------------------------||-------------------------||-14b16r====(14)--(14)\---||-------------------------||-------------------------||-------------------------|
|
|-------------------------||-------------------------||-------------------------||--2------2---2---------2-||--2------2---2---------2-||--0------0---0---------0-|
Chorus 2 E5 E5 C5 C5 Gtrs III, IV|-------------|-------------|-------------|-------------||-------------|-------------|-------------|-------------||-------------|-------------|-5---5-5---5-|-5---5-5---5-||-2---2-2---2-|-2---2-2---2-|-5---5-5---5-|-5---5-5---5-||-2---2-2---2-|-2---2-2---2-|-3---3-3---3-|-3---3-3---3-||-0---0-0---0-|-0---0-0---0-|-------------|-------------|
D5 D5 E5 E5|-------------|-------------|-------------|-------------||-------------|-------------|-------------|-------------||-7---7-7---7-|-7---7-7---7-|-------------|-------------||-7---7-7---7-|-7---7-7---7-|-2---2-2---2-|-2---2-2---2-||-5---5-5---5-|-5---5-5---5-|-2---2-2---2-|-2---2-2---2-||-------------|-------------|-0---0-0---0-|-0---0-0---0-|
Out-Chorus/Solo E5 E5 Gtr III|-----------------------|-----------------------||-----------------------|-----------------------||-----------------------|-----------------------||--2-------2--2-------2-|--2-------2--2-------2-||--2-------2--2-------2-|--2-------2--2-------2-||--0-------0--0-------0-|--0-------0--0-------0-|
|
| Gtr IV|-12tr15----------------|-----------------------||------------12tr15-----|-----------------------||-----------------------|-12tr14----------------||-----------------------|------------12tr14-----||-----------------------|-----------------------||-----------------------|-----------------------|
C5 C5|-----------------------|-----------------------||-----------------------|-----------------------||--5-------5--5-------5-|--5-------5--5-------5-||--5-------5--5-------5-|--5-------5--5-------5-||--3-------3--3-------3-|--3-------3--3-------3-||-----------------------|-----------------------|
|
|-12tr15----------------|-----------------------||------------12tr15-----|-----------------------||-----------------------|-12tr14----------------||-----------------------|------------12tr14-----||-----------------------|-----------------------||-----------------------|-----------------------|
D5 D5|-----------------------|-----------------------||-----------------------|-----------------------||--7-------7--7-------7-|--7-------7--7-------7-||--7-------7--7-------7-|--7-------7--7-------7-||--5-------5--5-------5-|--5-------5--5-------5-||-----------------------|-----------------------|
|
|-12tr15----------------|-----------------------||------------12tr15-----|-----------------------||-----------------------|-12tr14----------------||-----------------------|------------12tr14-----||-----------------------|-----------------------||-----------------------|-----------------------|
E5|-------------------------------------------------------------------------------------------------||-------------------------------------------------------------------------------------------------||-------------------------------------------------------------------------------------------------||--2-----------------------------------2-----------2-----------------------------------2----------||--2-----------------------------------2-----------2-----------------------------------2----------||--0-----------------------------------0-----------0-----------------------------------0----------|
|
| T T T T T T T T T T T T T T T|-12-13-12-14-12-15-12-16-12-17-12-18-12-19-12-20-12-21-12-22-12-23-12-24-12-24-12-24-12-24-12-24-||-------------------------------------------------------------------------------------------------||-------------------------------------------------------------------------------------------------||-------------------------------------------------------------------------------------------------||-------------------------------------------------------------------------------------------------||-------------------------------------------------------------------------------------------------|
E5|-------------------------------||-------------------------------||-------------------------------||--2-------2-2----------2-------||--2-------2-2----------2-------||--0-------0-0----------0-------|
|
| T T T T T T T T|-23tr24--------x-x-x-x-x-x-x-x-||-------------------------------||-------------------------------||-------------------------------||-------------------------------||-------------------------------|
E5 E5 C5 C5|-----------------------|-----------------|--------------|----------------||-----------------------|-----------------|--------------|----------------||-----------------------|-----------------|--5---5-5---5-|---5----5-5---5-||--2-------2--2-------2-|---2----2-2----2-|--5---5-5---5-|---5----5-5---5-||--2-------2--2-------2-|---2----2-2----2-|--3---3-3---3-|---3----3-3---3-||--0-------0--0-------0-|---0----0-0----0-|--------------|----------------|
|
| ~~~~~~~~~~~~~~~~~ ~~~~~~~~~~~~~~~~~~~|-12---------12---------|-(12)---------14-|-15-----------|-(15)-----------||-15b17======15b17======|=(15)------------|--------------|----------------||-----------------------|-----------------|--------------|----------------||-----------------------|-----------------|--------------|----------------||-----------------------|-----------------|--------------|----------------||-----------------------|-----------------|--------------|----------------|
D5 D5|----------------|------------------------||----------------|------------------------||---7----7-7---7-|--7-------------7-7---7-||---7----7-7---7-|--7-------------7-7---7-||---5----5-5---5-|--5-------------5-5---5-||----------------|------------------------|
|
| ~~~~ ~~~~~~~~~~~~~~~|-(15)-----------|-21b24===21b24==========||----------------|------------------------||----------------|------------------------||----------------|------------------------||----------------|------------------------||----------------|------------------------|
E5 E5|----------------|--------------------||----------------|--------------------||----------------|--------------------||---2----2-2---2-|---2----2---2-----2-||---2----2-2---2-|---2----2---2-----2-||---0----0-0---0-|---0----0---0-----0-|
|
|~~~~~~~~~~~~~~~~~~~~~~~~~~~~~~~~~|-(21)-----------|-(21)-----(21)\-----||----------------|--------------------||----------------|--------------------||----------------|--------------------||----------------|--------------------||----------------|--------------------|
E5 E5|--------------------|-----------------------------||--------------------|-----------------------------||--------------------|-----------------------------||--2----2-----2----2-|--2----------2-2------2------||--2----2-----2----2-|--2----------2-2------2------||--0----0-----0----0-|--0----------0-0------0------|
|
| ~~ PM---| ~~~~~~~~~~~~~~~~~~~|--------------------|-----------------------------||--------------------|-----------------------------||-14---12------------|-----------------------------||---------12-14---14-|-------12-12-----(12)---(12)-||--------------------|-12-14-----------------------||--------------------|-----------------------------|
C5 C5|--------------|------------------*||--------------|------------------*||--5---5-5---5-|---5----5-5---5---*||--5---5-5---5-|---5----5-5---5---*||--3---3-3---3-|---3----3-3---3---*||--------------|------------------*|
|
|~~~~~~~~~~~~~~~~~~~~~|--------------|------------------*||--------------|------------------*||-14-----------|-(14)-------------*||--------------|------------------*||--------------|------------------*||--------------|------------------*|
Tap to rate this tab
 
# A B C D E F G H I J K L M N O P Q R S T U V W X Y Z