We Are The End – Skies Most Wanted Goodbyes tab

http://www.myspace.com/wearetheendx

We Are The End - Skies Most Wanted Goodbyes
Tabbed By: Billybusa (me)
Tuning: Drop A#

I'm not gonna tab the chugging in this, it's all just either opens or:----------------------|------------||----------------------|------------||----------------------|------------||----------------------|------------||--0----3----2----1----|--0----3----||--1----4----3----2----|--1----4----||
So on to the tab:
0:45Guitars I & IIEverything's tremolo picked:C ||--------------------------|G ||--------------------------|D#||--------------------------|A#||--------------------------|F ||--3--2--------------------|A#||--------3--2--6--5--3--2--|
--------------------------|--------------------------|--------------------------|--------------------------|--3--2--------6--5--3--2--|--------3--2--------------|
--------------------------|--------------------------|--------------------------|--------------------------|--3--2--------------------|--------3--2--6--5--3--2--|
--------------------------|--------------------------|--------------------------|--------------------------|--6--5--6--8--6--5--3--2--|--------------------------|
--------------------------|--------------------------|--------------------------|--------------------------|--3--2--------------------|--------3--2--6--5--3--2--|
--------------------------|--------------------------|--------------------------|--------------------------|--3--2--------6--5--3--2--|--------3--2--------------|
--------------------------|--------------------------|--------------------------|--------------------------|--3--2--------------------|--------3--2--6--5--3--2--|
--------------------------|--------------------------|--------------------------|--------------------------|--6--5--6--8--6--5--3--2--|--------------------------|
Keeeeeep tremolo picking
Guitar I & II|-------------------|--------------------||-------------------|--------------------||-------------------|--------------------||-------------------|--5--------6--------||--3----------------|--------------------||-------------------|--------------------|
|-------------------|--------------------||-------------------|--------------------||-------------------|--------------------||-------------------|--6--------5--------||--1----------------|--------------------||-------------------|--------------------|
Guitar I|-------------------|--------------------||-------------------|--------------------||-------------------|--------------------||-------------------|--5--------6--------||--3----------------|--------------------||-------------------|--------------------|
|
|Guitar II|-------------------|---------------------||-------------------|---------------------||-------------------|---------------------||-------------------|--8--------10--------||--6----------------|---------------------||-------------------|---------------------|
|-------------------|--------------------||-------------------|--------------------||-------------------|--------------------||-------------------|--6--------5--------||--1----------------|--------------------||-------------------|--------------------|
|
|-------------------|---------------------||-------------------|---------------------||-------------------|---------------------||-------------------|--10--------8--------||--5----------------|---------------------||-------------------|---------------------|
Open chugging here
1:31Guitars I & II|----------------------|----------------------||----------------------|----------------------||----------------------|----------------------||----------------------|----------------------| x alot|--0----3----2----1----|--0----3----2----1----||--1----4----3----2----|--1----4----3----2----|
1:48|--------------------------||--------------------------||--------------------------||--------------------------| x4|--6--3--------5--2--------||--------3--2--------3--2--|
Guitar I|--------------------------||--------------------------||--------------------------||--------------------------||--6--3--------5--2--------||--------3--2--------3--2--|
| x4|Guitar II|--------------------------||--------------------------||--------------------------||--------------------------||--9--6--------8--5--------||--------3--2--------3--2--|
Sweep Picking:
|--17-13----------------13-17-13-------18-13-18-13-||--------15----------15----------15----------------||-----------14----14----------------14-------------||--------------15----------------------------------||--------------------------------------------------||--------------------------------------------------|
-17-13----------------13-17-13--------18-13-------|-------15----------15----------15-----------15----|----------14----14----------------14-----------14-|-------------15-----------------------------------|--------------------------------------------------|--------------------------------------------------|
|--15-11----------------11-15-11-------15-11-16-11-||--------13----------13----------13----------------||-----------12----12----------------12-------------||--------------13----------------------------------||--------------------------------------------------||--------------------------------------------------|
--15-11----------------11-15-11-------15-11--------|--------13----------13----------13----------13-----|-----------12----12----------------12----------12--|--------------13-----------------------------------|---------------------------------------------------|---------------------------------------------------|
Play ^^ Twice Rest is just chugging like I mentioned at the beginning
Please rate this tab:
x1.0