We Are The End - 1000 Bodies To Bury tab

http://www.myspace.com/wearetheendx

We Are The End - 1000 Bodies To Bury
Tabbed by: Billybusa (me)
Tuning: Drop A#

Guitars I & IIC ||-----------------|G ||-----------------|D#||-----------------|A#||-----------------|F ||--3--2--6--5--3--|A#||--3--2--6--5--3--|
The next few bars are all tremolo picked-------------------------|-------------------------|-------------------------|--------------4----------|--------5--6-----6--5----|--5--8-------------------|
------------------------|------------------------|------------------------|------------------------|--------5----------6----|--5--8-------5--8-------|
-------------------------|-------------------------|-------------------------|--------------4----------|--------5--6-----6--5----|--5--8-------------------|
----------------------------|----------------------------|----------------------------|----------------------------|----------------------------|--5--8--6--9--7--10--8--11--|
-------------------------|-------------------------|-------------------------|--------------4----------|--------5--6-----6--5----|--5--8-------------------|
------------------------|------------------------|------------------------|------------------------|--------5----------6----|--5--8-------5--8-------|
-------------------------|-------------------------|-------------------------|--------------4----------|--------5--6-----6--5----|--5--8-------------------|
----------------------------|----------------------------|----------------------------|----------------------------|----------------------------|--5--8--6--9--7--10--8--11--|
----------------------------|----------------------------|----------------------------|----------------------------| x4----------------------------|--5--8--6--9--7--10--8--11--|
Guitar I|--------------------------||--------------------------||--------------------------||--------------------------||--3--0--2--1--------------||--3--0--2--1--------------|| PM--------->
|
|Guitar II|--------------------------||--------------------------||--------------------------||--------------------------||--------------3--0--2--1--||--------------3--0--2--1--| PM--------->
|--------------------------13-10----10-16-13----13-||--------------15-12----12-------12----------15----||--16-13----13-------13----------------------------||--------15----------------------------------------||--------------------------------------------------||--------------------------------------------------|
|
|--------------------------16-13----13-19-16----16-||--------------18-15----15-------15----------18----||--19-16----16-------16----------------------------||--------18----------------------------------------||--------------------------------------------------||--------------------------------------------------|
Guitars I & II|--------------------------||--------------------------||--------------------------||--------------------------||--3--0--2--1--3--0--2--1--||--3--0--2--1--3--0--2--1--|
x4|----------------------------||----------------------------||----------------------------||--------------------<>3~----||--3--0--2--1--3--0----------||--3--0--2--1--3--0----------|
Breakdown:
Guitar I|--------------------------||--------------------------||--------------------------||--5--5--5--5--5-----------||--4--4--4--4--4-----------||--5--5--5--5--5-----------|
|
|Guitar II|--------------------------||--------------------------||--------------------------||--------------------------||--0--0--0--0--0-----------||--0--0--0--0--0-----------|
|--------------------------||--------------------------||--------------------------||--5--5--5--5--5-----------||--4--4--4--4--4-----------||--5--5--5--5--5-----------|
|
|--------------------------||--------------------------||--------------------------||--------------------------||--0--0--0--0--0-----------||--0--0--0--0--0-----------|
|--------------------||--------------------||--------------------||--2--------2--------||--1--------1--------||--2--------2--------|
Play the breakdown 3 times
Guitars I & II|--------------------------||--------------------------||--------------------------||--------------------------||--2--0--4--3--2--0--2--1--||--2--0--4--3--2--0--2--1--|
Tremolo picked:|---------------------|---------------------||---------------------|---------------------||---------------------|---------------------||---------------------|---------------------| x4|-------2-------------|--2--------1---------||--2-------------2----|----------------1----|
|---------------------||---------------------||---------------------||-------2-------------||--2----2--------2----||--2----3--------2----|
x4|------------------------||------------------------||------------------------||--2----------2----------||--2----------1----------||--3----------2----------|
Tremolo picked:|-------------------------------------------------||-------------------------------------------------||-------------------------------------------------||-------------------------------------------------||-------------------------------------------------||--3--3--0--0--2--2--1--1--3--3--0--0--2--2--1--1-|
|------------------------------------||------------------------------------||------------------------------------||------------------------------------||-------------------------------2----||--3--3--0--0--2--2--1--1--6---------|
|-------------------------------------------------||-------------------------------------------------||-------------------------------------------------||-------------------------------------------------||-------------------------------------------------||--3--3--0--0--2--2--1--1--3--3--0--0--2--2--1--1-|
|------------------------------------||------------------------------------||------------------------------------||------------------------------------||------------------------------------||--3--3--0--0--2--2--1--1--6----0----|
Play that whole thing twice Now, on this breakdown play open chugging with this every now and then:
|----------------------------------||----------------------------------||--------------4-7---------4-7-----||------3-6-4-7-----4-7-3-6-----3-6-||--3-6-----------------------------||----------------------------------|
The rest is just open chugging
Tap to rate this tab
 
# A B C D E F G H I J K L M N O P Q R S T U V W X Y Z