We Butter The Bread With Butter – 13 Wunsche tab ver. 2

13 Wunche

We Butter The Bread With Butter

Tuning: B,F#,B,E,G#,C#


KeyBoard Rythem or Guitar 0:00||-----------------------------------------------------------------------|||-------------(7)/15-----------------------(7)/15-----------------------|||----------12--------15-14-15-(15)\14~------------15-14-14-15~----------|||--------------------------------------12~---------------------(19)\13~-|||-(16)\10~--------------------------------------------------------------|||-----------------------------------------------------------------------|
|--------------------------(4)/17~-|||-(7)/15---------------------------|||--------15-14-15-(14)/14~---------|||----------------------------------|||----------------------------------|||----------------------------------||
Bass Guitar 0:00||---------------------------------------------------|||---------------------------------------------------|||-------------------10---10-------------------7---7-|||-5-5-5-5-7-8-7-8-7----7----0-0-0-0-1-3-1-3-5---5---|
|-------------------------------------------------|||-------------------------------------------------|||-------------------7---7-----------------10---10-|||-1-1-1-1-1-3-1-3-5---5---0-0-0-0-7-8-7-8----7----||
Rythem Guitar 0:14||---------------------------------------|||---------------------------------------|||---------------------------------------|||---------------------------------------|||---------------------------------------|||-5555-5-5--5555-5-5--5555-5-5-5--5-5-5-| .... .... ....
|---------------------------------------|||---------------------------------------|||---------------------------------------|||-------------0-----------------------4-|||-------------0-----------------------4-|||-5555-5-5-5--0--5-5--5-5--4-4-4-4444-4-|| 2x .... . . . ....
Rythem Guitar 0:34||-----------------------||||-----------------------||||-----------------------||||-5~--0~--1~--4~--4-----||||-5~--0~--1~--4~--4-4-4-||||-5~--0~--1~--4~--4-4-4-|| . .
Lead Guitar 0:34||------------------|||-15~--15-16-15-13-|||------------------|||------------------|||------------------|||------------------| 3x
|------22\~------|||-15~------------|||----------------|||----------------|||-----------(10)-|||----------------||
Rythem Guitar 0:47||-----------------------------------------------------------------||||-----------------------------------------------------------------||||-----------------------------------------------------------------||||-5---------------0---------------1----------------0------4-------||||-5-5-5--55555555-0-0-0--00000000-1-1-1--111111111-0-0-0--4-4-4-4-||||-5-5-5--55555555-0-0-0--00000000-1-1-1--111111111-0-0-0--4-4-4-4-|| . . ........ . . ........ . . ......... . . . . .
|-------------------------------------------------||-------------------------------------------------||-------------------------------------------------||-------------------------------------------------||----------5-5--------------------0-0-------------||-55555555-5-5--55555555-00000000-0-0--00000000---| . . ........ . . ........
|-----------------------------------------------|||-----------------------------------------------|||-----------------------------------------------|||-----------------------------------------------|||----------1-1--------------------0-0-----------|||-11111111-1-1--11111111-00000000-0-0--00000000-|| . . ........ . . ........
KeyBoard Rythem or Guitar 0:47||-----------------------------------------------------------------------|||-------------(7)/15-----------------------(7)/15-----------------------|||----------12--------15-14-15-(15)\14~------------15-14-14-15~----------|||--------------------------------------12~---------------------(19)\13~-|||-(16)\10~--------------------------------------------------------------|||-----------------------------------------------------------------------|
|--------------------------(4)/17~-|||-(7)/15---------------------------|||--------15-14-15-(14)/14~---------|||----------------------------------|||----------------------------------|||----------------------------------||
Bass Guitar 0:01||---------------------------------------------------|||---------------------------------------------------|||-------------------10---10-------------------7---7-|||-5-5-5-5-7-8-7-8-7----7----0-0-0-0-1-3-1-3-5---5---|
|-------------------------------------------------|||-------------------------------------------------|||-------------------7---7-----------------10---10-|||-1-1-1-1-1-3-1-3-5---5---0-0-0-0-7-8-7-8----7----||
Rythem Guitar 1:16||---------------------------------------------------------------------||||---------------------------------------------------------------------||||---------------------------------------------------------------------||||---------------------------------------------------------------------||||------------------6666666655553333-----------------------------------||||-1111111111111111------------------5555555555555555-4444444444444444-||
Rythem Guitar 1:22||------------------------------------------------------------|||------------------------------------------------------------|||------------------------------------------------------------|||-5-5-------------------------5-5----------------------------|||-5-5-8h11p8h11p8-7h10p7h10p7-5-5-8h11p8h11p8-10h13p10h13p10-|||-5-5-------------------------5-5----------------------------|
|---------------------------------------------------------------------||---------------------------------------------------------------------||---------------------------------------------------------------------||-5-5-------------------------------5-5-------------------------------||-5-5-13h16p13h16p13-12h15p12h15p12-5-5-15h18p15h18p15-13h16p13h16p13-||-5-5-------------------------------5-5-------------------------------|
|-----------------------------------------------------|||-----------------------------------------------------|||-----------------------------------------------------|||-1-1----------1-1----------3-3----------0-0----------|||-1-1----------1-1----------3-3----------0-0----------|||-1-1-11111111-1-1-11111111-3-3-33333333-0-0-00000000-|| ........ ........ ........ ........
Rythem Guitar 1:36||------------------------------------------------------------|||------------------------------------------------------------|||------------------------------------------------------------|||-5-5-------------------------5-5----------------------------|||-5-5-8h11p8h11p8-7h10p7h10p7-5-5-8h11p8h11p8-10h13p10h13p10-|||-5-5-------------------------5-5----------------------------|
|---------------------------------------------------------||---------------------------------------------------------||---------------------------------------------------------||-5-5-------------------------------5-5-------------------||-5-5-13h16p13h16p13-12h15p12h15p12-5-5-15h18p15h18p15-16-||-5-5-------------------------------5-5-------------------|
||------------------------------------------------------------|||------------------------------------------------------------|||------------------------------------------------------------|||-1-1-------------------------1-1----------------------------|||-1-1-8h11p8h11p8-7h10p7h10p7-1-1-8h11p8h11p8-10h13p10h13p10-|||-1-1-------------------------1-1----------------------------|
|------------------------------------------------------------------||------------------------------------------------------------------||------------------------------------------------------------------||-3-3-------------------------------0-0----------------------------||-3-3-13h16p13h16p13-12h15p12h15p12-0-0-10h13p10h13p10-8h11p8h11p8-||-3-3-------------------------------0-0----------------------------|
Guitar 1 2:50 (heavy distortion)||-----------------------||||-----------------------||||-----------------------||||-----------------------||||-0--1-3-4-0--1-4-3-1-3-||||-0--1-3-4-0--1-4-3-1-3-|| . . . . . . . . . .
Guitar 2 2:53 (light distortion)||-----------------------||||-----------------------||||-----------------------||||-----------------------||||-0--1-3-4-0--1-4-3-1-3-||||-0--1-3-4-0--1-4-3-1-3-|| . . . . . . . . . .
Both Guitars 2:57||-----------------------||||-----------------------||||-----------------------||||-----------------------||||-0--1-3-4-0--1-4-3-1-3-||||-0--1-3-4-0--1-4-3-1-3-|| . . . . . . . . . .
Bass or Keyboard 2:00||-----------------------||||-----------------------||||-----------------------||||-----------------------||||-----------------------||||-0--1-3-4-0--1-4-3-1-3-||
Both Guitars 2:05||-----------------------||||-----------------------||||-----------------------||||-----------------------||||-0--1-3-4-0--1-4-3-1-3-||||-0--1-3-4-0--1-4-3-1-3-|| 4x . . . . . . . . . .
Rythem Guitar 2:21||------------------------------------||||------------------------------------||||------------------------------------||||------------------------------------||||------------------------------------||||-5(32x)-0(32x)-1(32x)-4(16x)-7(16x)-|| 2x
KeyBoard Rythem or Guitar 2:21||----------------------------------------------------------------------|||---------------------(3)/15---------------------------(3)/15----------|||-(0)/12---------------------15-14-15--14---------------------15-14-15-|||--------12-13-13-12~---------------------12-13-13-12~-----------------|||----------------------------------------------------------------------|||----------------------------------------------------------------------|
|--------------------------------------------------------------(16)/17-15~-|||-----------------(3)/15--------------(10)/15-16-16-(15)/19-19-------------|||-15---------------------15-14-15--14--------------------------------------|||----12-13-13-12~----------------------------------------------------------|||--------------------------------------------------------------------------|||--------------------------------------------------------------------------||
Updated Tab 6/14/2010 Please Rate to see how I did!
Please rate this tab:
x1.0