We Butter The Bread With Butter – Fuchs Du Hast Die Gans Gestohlen tab

We Butter The Bread With Butter - Fuchs Du hast die Gans Gestohlen

Lead Guitar
This song is supposed to be in Drop C.
If you have a capo, just put it on the first fret and it will be like
if you're playing in Drop C. That way you can just open fret the 1s

Drop B
1 - Db      4 - B
2 - Ab      5 - Gb
3 - E       6 - B

(if using a capo play this for the main riff on the 5th string instead of 
playing on the 4th string)
|---------6-6-6-6-9-9-9-9-|---------6-6-6-6-9-9-9-9-6-6-6-6-9-9-9-9-|


|-------------------------|-----------------------------------------||-------------------------|-----------------------------------------||-------------------------|-----------------------------------------||---------1-1-1-1-4-4-4-4-|---------1-1-1-1-4-4-4-4-1-1-1-1-4-4-4-4-||-------------------------|-----------------------------------------||-1-1-1-1-----------------|-1-1-1-1---------------------------------|
|------------------------------|------------------------------------------------||------------------------------|------------------------------------------------||------------------------------|------------------------------------------------||------------------------------|------------------------------------------------||----------8-8-8-8-11-11-11-11-|---------9-9-9-9-12-12-12-12-9-9-9-9-12-12-12-12||-8-8-8-8----------------------|-8-8-8-8----------------------------------------|
|-------------------------|-----------------------------------------||-------------------------|-----------------------------------------||-------------------------|-----------------------------------------||---------1-1-1-1-4-4-4-4-|---------1-1-1-1-4-4-4-4-1-1-1-1-4-4-4-4-||-------------------------|-----------------------------------------||-1-1-1-1-----------------|-1-1-1-1---------------------------------|
|----------------------------------|-------------------------||----------------------------------|-------------------------||----------------------------------|-------------------------||----------------------------------|-------------8-8-8-9-9-9-||-------14-14-14-13-13-13-11-11-11-|-------9-9-9-------------||-9-9-9----------------------------|-6-6-6-------------------|
|-------------------------|-----------------------------------------||-------------------------|-----------------------------------------||-------------------------|-----------------------------------------||---------1-1-1-1-4-4-4-4-|---------1-1-1-1-4-4-4-4-1-1-1-1-4-4-4-4-||-------------------------|-----------------------------------------||-1-1-1-1-----------------|-1-1-1-1---------------------------------|
|------------------------------|------------------------------------------------||------------------------------|------------------------------------------------||------------------------------|------------------------------------------------||------------------------------|------------------------------------------------||----------8-8-8-8-11-11-11-11-|---------9-9-9-9-12-12-12-12-9-9-9-9-12-12-12-12||-8-8-8-8----------------------|-8-8-8-8----------------------------------------|
|-----------------------------------------------------||-----------------------------------------------------||-----------------------------------------------------||-----------------------------------------------------||-1-1-1-1-1-1-1-1-1----1-1-1-1-1-1-1-1-1-1-1-1-1----1-||-1-1-1-1-1-1-1-1-1----1-1-1-1-1-1-1-1-1-1-1-1-1----1-| . . . . . . . . . . . . . . . . . . . . . . .
|----------------------------------|-------------------------||----------------------------------|-------------------------||----------------------------------|-------------------------||----------------------------------|-------------8-8-8-9-9-9-||-------14-14-14-13-13-13-11-11-11-|-------9-9-9-------------||-9-9-9----------------------------|-6-6-6-------------------|
|-------------------------|----------------------------||-------------------------|----------------------------||-------------------------|----------------------------||-----1---4---1-1-4-1-1-4-|----------------------------||-------------------------|-----8---11---9-9-13-9-9-13-||-1-1---1---1-------------|-8-8---8----8---------------|
|-------------------------|----------------------------------|-------------------------||-------------------------|----------------------------------|-------------------------||-------------------------|----------------------------------|-------------------------||-----1---4---1-1-4-1-1-4-|----------------------------------|-------------8-8-8-9-9-9-||-------------------------|-------14-14-14-13-13-13-11-11-11-|-------9-9-9-------------||-1-1---1---1-------------|-9-9-9----------------------------|-6-6-6-------------------|
|---------------------------------------------------------||---------------------------------------------------------||---------------------------------------------------------||---------------------------------------------------------||-6-6-6-6-9-9-9-9-8-8-8-8-6-6-6-6-5-5-5-5-8-8-8-8-6-6-6-6-||---------------------------------------------------------|
||-----------------------------------------------------||||-----------------------------------------------------||||-----------------------------------------------------||||-----------------------------------------------------||||-1-1-1-1-1-1-1-1-1----1-1-1-1-1-1-1-1-1-1-1-1-1----1-||||-1-1-1-1-1-1-1-1-1----1-1-1-1-1-1-1-1-1-1-1-1-1----1-|| 3x . . . . . . . . . . . . . . . . . . . . . . .
|----------------------------------|-------------------------||----------------------------------|-------------------------||----------------------------------|-------------------------||----------------------------------|-------------8-8-8-9-9-9-||-------14-14-14-13-13-13-11-11-11-|-------9-9-9-------------||-9-9-9----------------------------|-6-6-6-------------------|
||-----------------------------------------------------||||-----------------------------------------------------||||-----------------------------------------------------||||-----------------------------------------------------||||-1-1-1-1-1-1-1-1-1----1-1-1-1-1-1-1-1-1-1-1-1-1----1-||||-1-1-1-1-1-1-1-1-1----1-1-1-1-1-1-1-1-1-1-1-1-1----1-|| 3x . . . . . . . . . . . . . . . . . . . . . . .
|----------------------------------|-------------------------||----------------------------------|-------------------------||----------------------------------|-------------------------||----------------------------------|-------------8-8-8-9-9-9-||-------14-14-14-13-13-13-11-11-11-|-------9-9-9-------------||-9-9-9----------------------------|-6-6-6-------------------|
|---------|----------------------------||---------|----------------------------||---------|----------------------------||--9---6--|-1----1--1------------------||--9---6--|-1----1--1--1-1-1-1-1-1-1-1-||--9---6--|-1----1--1--1-1-1-1-1-1-1-1-| . . . . . . . . . . .
||----------------------------|-------------------------|||----------------------------|-------------------------|||----------------------------|-------------------------|||----------------------------|-------------8-8-8-9-9-9-|||-------9-9-9-13-13-13-9-9-9-|-------9-9-9-------------|||-9-9-9----------------------|-6-6-6-------------------|
|-------------------------------------------|||-------------------------------------------|||-------------------------------------------|||-------------------------------------------|||-6-6-6-5-5-5-6-6-6-8-8-8-6-6-6-5-5-5-------|||-------------------------------------8-8-8-||3x
|------------------------------|--------------------------------|------------------------------||------------------------------|--------------------------------|------------------------------||------------------------------|--------------------------------|------------------------------||------------------------------|--------------------------------|------------------------------||--1----1-1-1-1-1---1-1---1-1--|--1----1-1-1-1-1---1---1-1-1-1--|--1----1-1-1-1-1---1-1---1-1--||--1----1-1-1-1-1---1-1---1-1--|--1----1-1-1-1-1---1---1-1-1-1--|--1----1-1-1-1-1---1-1---1-1--| . . . . . . . . . . . . . . . . . . . . . . . . . . . . . . .
|---------| ||------------------------------|--------------------------------||---------| ||------------------------------|--------------------------------||---------| ||------------------------------|--------------------------------||---------| ||------------------------------|--------------------------------||--12\\\--| ||--1----1-1-1-1-1---1-1---1-1--|--1----1-1-1-1-1---1---1-1-1-1--||--12\\\--| ||--1----1-1-1-1-1---1-1---1-1--|--1----1-1-1-1-1---1---1-1-1-1--| . . . . . . . . . . . . . . . . . . . . .
|------------------------------|----------------------------------|||------------------------------|----------------------------------|||------------------------------|----------------------------------|||------------------------------|----------------------------------|||--1----1-1-1-1-1---1-1---1-1--|--1----1-1-1-1---6h9p6h9p5h8p5h8--|||--1----1-1-1-1-1---1-1---1-1--|--1----1-1-1-1--------------------||2x . . . . . . . . . . . . . . .
|-------------------------|-----------------------------------------||-------------------------|-----------------------------------------||-------------------------|-----------------------------------------||---------1-1-1-1-4-4-4-4-|---------1-1-1-1-4-4-4-4-1-1-1-1-4-4-4-4-||-------------------------|-----------------------------------------||-1-1-1-1-----------------|-1-1-1-1---------------------------------|
|------------------------------|------------------------------------------------||------------------------------|------------------------------------------------||------------------------------|------------------------------------------------||------------------------------|------------------------------------------------||----------8-8-8-8-11-11-11-11-|---------9-9-9-9-12-12-12-12-9-9-9-9-12-12-12-12||-8-8-8-8----------------------|-8-8-8-8----------------------------------------|
|-------------------------|-----------------------------------------||-------------------------|-----------------------------------------||-------------------------|-----------------------------------------||---------1-1-1-1-4-4-4-4-|---------1-1-1-1-4-4-4-4-1-1-1-1-4-4-4-4-||-------------------------|-----------------------------------------||-1-1-1-1-----------------|-1-1-1-1---------------------------------|
|----------------------------------|-------------------------||----------------------------------|-------------------------||----------------------------------|-------------------------||----------------------------------|-------------8-8-8-9-9-9-||-------14-14-14-13-13-13-11-11-11-|-------9-9-9-------------||-9-9-9----------------------------|-6-6-6-------------------|
|-------------------------|-----------------------------------------||-------------------------|-----------------------------------------||-------------------------|-----------------------------------------||---------1-1-1-1-4-4-4-4-|---------1-1-1-1-4-4-4-4-1-1-1-1-4-4-4-4-||-------------------------|-----------------------------------------||-1-1-1-1-----------------|-1-1-1-1---------------------------------|
|------------------------------|------------------------------------------------||------------------------------|------------------------------------------------||------------------------------|------------------------------------------------||------------------------------|------------------------------------------------||----------8-8-8-8-11-11-11-11-|---------9-9-9-9-12-12-12-12-9-9-9-9-12-12-12-12||-8-8-8-8----------------------|-8-8-8-8----------------------------------------|
|-----------------------------------------------------||-----------------------------------------------------||-----------------------------------------------------||-----------------------------------------------------||-1-1-1-1-1-1-1-1-1----1-1-1-1-1-1-1-1-1-1-1-1-1----1-||-1-1-1-1-1-1-1-1-1----1-1-1-1-1-1-1-1-1-1-1-1-1----1-| . . . . . . . . . . . . . . . . . . . . . . .
|----------------------------------|-------------------------||----------------------------------|-------------------------||----------------------------------|-------------------------||----------------------------------|-------------8-8-8-9-9-9-||-------14-14-14-13-13-13-11-11-11-|-------9-9-9-------------||-9-9-9----------------------------|-6-6-6-------------------|
(solo)|------------------|--18-----------------------------||--5---5-4/5/6-----|-----16-19----16-----------------||--8---8-7/8/9-----|-----------15-------15-----------||---------------3--|-----------------16----16----13--||---------------7--|--------------------------17-----||------------------|---------------------------------|
|--16-----------------------------|------------------------------------||-----15-18----15-----------------|------------------------------------||-----------13-------13-----------|--15--------------------------------||-----------------15----15-12-----|-----13-16----13--------------------||-----------------------------13--|-----------13----13----13-----------||---------------------------------|--------------------16----16-15-13--|
|-------------------------------|---------|----------||-------------------------------|--14b15--|--18b19r--||-------------------------------|---------|----------||--12b13r-12-13-12--------------|---------|----------||------------------13-13-12-13--|---------|----------||-------------------------------|---------|----------|
||-------------------------|-----------------------------------------|||-------------------------|-----------------------------------------|||-------------------------|-----------------------------------------|||---------1-1-1-1-4-4-4-4-|---------1-1-1-1-4-4-4-4-1-1-1-1-4-4-4-4-|||-------------------------|-----------------------------------------|||-1-1-1-1-----------------|-1-1-1-1---------------------------------|
|------------------------------|------------------------------------------------||------------------------------|------------------------------------------------||------------------------------|------------------------------------------------||------------------------------|------------------------------------------------||----------8-8-8-8-11-11-11-11-|---------9-9-9-9-12-12-12-12-9-9-9-9-12-12-12-12||-8-8-8-8----------------------|-8-8-8-8----------------------------------------|
|-------------------------|-----------------------------------------||-------------------------|-----------------------------------------||-------------------------|-----------------------------------------||---------1-1-1-1-4-4-4-4-|---------1-1-1-1-4-4-4-4-1-1-1-1-4-4-4-4-||-------------------------|-----------------------------------------||-1-1-1-1-----------------|-1-1-1-1---------------------------------|
|----------------------------------|-------------------------|||----------------------------------|-------------------------|||----------------------------------|-------------------------|||----------------------------------|-------------8-8-8-9-9-9-|||-------14-14-14-13-13-13-11-11-11-|-------9-9-9-------------|||-9-9-9----------------------------|-6-6-6-------------------||2x
|----------------------------------|---------||----------------------------------|---------||----------------------------------|---------||----------------------------------|---------||--1----1-1-1-1-1---1-1---1-1---1--|--12\\\--||--1----1-1-1-1-1---1-1---1-1---1--|--12\\\--| . . . . . . . . . . .
||------------------------------|--------------------------------|||------------------------------|--------------------------------|||------------------------------|--------------------------------|||------------------------------|--------------------------------|||--1----1-1-1-1-1---1-1---1-1--|--1----1-1-1-1-1---1---1-1-1-1--|||--1----1-1-1-1-1---1-1---1-1--|--1----1-1-1-1-1---1---1-1-1-1--| . . . . . . . . . . . . . . . . . . . . .
|------------------------------|----------------------------------|| |-----||------------------------------|----------------------------------|| |-----||------------------------------|----------------------------------|| |-----||------------------------------|----------------------------------|| |-----||--1----1-1-1-1-1---1-1---1-1--|--1----1-1-1-1---6h9p6h9p5h8p5h8--|| |--1--||--1----1-1-1-1-1---1-1---1-1--|--1----1-1-1-1--------------------||2x |--1--| . . . . . . . . . . . . . . . .
Please rate this tab:
x1.0