We Came As Romans - Shapes tab

-------------------------------------------------------------------------------
			     SHAPES  We Came As Romans
-------------------------------------------------------------------------------

INTRO |--------------------------------------||----------66-666----------------------||----------99-999----------------------||--------------------------------------||-0----5p0--------0----5p0-33-333h5----||-0-3h5-----------0-3h5----------------|
|--------------------------------------||----------66-666----------------------||----------99-999----------------------||--------------------------------------||-0----5p0----------0----5p0-33-3335---| (2x)|-0-3h5-------------0-3h5----33-3335---|
|---------------------------------------------------------------------------||---------------------------------------------------------------------------||---------------------------------------------------------------------------||-------------------------------------------------0~------------------------||-0-00000-00-0-0-003-(2x)-0-00000-00-0-0-003-(2x)-0~------------------------||-0-00000-00-0-0-003------0-00000-00-0-0-003------0~------------------------| .... .. . . .. . ..... .. . . ..
VERSE|------------------------------------------------------||------------------------------------------------------||------------------------------------------------------||------------------------------------------------------||-000-000-0000-000-000-000-000-000-0000-000-000-000----| (8x)|-000-000-0000-000-000-000-000-000-0000-000-000-000----|
... ... .... ... ... ... ... ... .... ... ... ... |---------------------------------------||---------------------------------------||---------------------------------------||---------------------------------------| |-----------------7h8p0-8h10p0-10h12----| (6x)|-12p0-5h7p0-8h7p0----------------------|
CHORUS 1|------------------------------------------|--------------------------------||------------------------------------------|--------------------------------||------------------------------------------|--------------------------------||------------------------------------------|-0~-------0~--------------------||-tp5------tp8-----tp13-tp12-------tp8-----|-0~-000-000~-----------(2x)-----||------------------------------------------|-0~-000-000~-12p0-8h10----------| ... ..
VERSE|------------------------10---------10--------------------------------------||--------------------------10-11-13---10-11-8-------------------------------||---------------------------------------------------------------------------||-0~-------0~-----0~--------------------------------------------------------||-0~-000-000~-000-0~-000----------------------0--00-00-0--0000--00-00-0-----||-0~-000-000~-000-0~-000----------------------0--00-00-0--0000--00-00-0-----|
... .. ... ... . .. .. . .... .. .. .|---------------------------------------------------||---------------------------------------------------||---------------------------------------------------||-88888888-10101010-7777-88888888-1010101010101010--||-88888888-10101010-7777-88888888-1010101010101010--||-88888888-10101010-7777-88888888-1010101010101010--|
|---------------------------------------------------||---------------------------------------------------||---------------------------------------------------||----------------------------------8----------------||-0-00000-00-00-3-00000-887--(2x)--8--(32x)---------||-0-00000-00-00-3-00000-887--------8----------------|
..... .. .. .....|-----------------------------------||-----------------------------------||-----------------------------------||-----------------------------------||-08888888000333h50-0000-0-000------| (4x)|-0-------000-----0-0000-0-000------| . ... . .... . ...
CHORUS 2|--------------------------------||-tp3-tp10-tp6-tp5-tp3-tp6-tp5---| (4x)|--------------------------------||--------------------------------||--------------------------------||--------------------------------|
BRIDGE|------------------------------------------------||------------------------------------------------||------------------------------------------------||-0000000000000000-1010101010101010-8888-7777----||-0000000000000000-1010101010101010-8888-7777----| (2x)|-0000000000000000-1010101010101010-8888-7777----|
|------------------------------------------------||------------------------------------------------||------------------------------------------------||-0000000000000000-1010101010101010-8888-7777----||-0000000000000000-1010101010101010-8888-7777----| (2x)|-0000000000000000-1010101010101010-8888-7777----| ................
|-----------------------------||-----------------------------||-----------------------------||----------------10----10-----||-0000-00-558--88----88--8----| (4x)|-0000-00----77----88---------| .... ..
Comment/rate please | h hammer-on | p pull-off | ~ vibrato | . Mute note | tp tremolo pick ===============================================================================
Tap to rate this tab
 
# A B C D E F G H I J K L M N O P Q R S T U V W X Y Z