We Came As Romans - An Ever-growing Wonder tab

-------------------------------------------------------------------------------
			     AN EVER-GROWING WONDER  We Came As Romans
-------------------------------------------------------------------------------

CHORUS|-----------------||-----------------||-----------------||-4-------7-------||-4-------7-------|2x|-4-------7-------|
REPRISE|-----------------------||-----------------------||-----------------------||-----------------------||-444-44700----000-2224-|4x|-444-447004-4-000-2224-| ... .. .. ... ...
|-----------------------------||-----------------------------||------6~---4~----------------||-4~--------------------------||-4~--------------------------|4x|-4~--------------------------|
REPRISE
|-----------------------------||-----------------------------||-181818181616161614141414----||-----------------------------||-----------------------------||-----------------------------|
|-----------------------------||-----------------------------||-----------------------------||-----------------------------||----5--------------5---------|2x|-444--77-444444-444--77-4444-|
CHORUS 2X
|---------------------||---------------------||---------------------||-4~-------2~---0~----||-4~-------2~---0~----||-4~-------2~---0~----|
|----------------------------------||----------------------------------||----------------------------------||----------------------------------||-44444444444444442222222200000000-|2x|-44444444444444442222222200000000-| ................................
REPRISE CHORUS REPRISE
|-------------------------------------------------------------||-------------------------------------------------------------||-------------------------------------------------------------||-4444444444444444000000000000000022222222222222224-2-0-4-2-0-||-4444444444444444000000000000000022222222222222224-2-0-4-2-0-|2x|-4444444444444444000000000000000022222222222222224-2-0-4-2-0-|
Comment/rate
Tap to rate this tab
 
# A B C D E F G H I J K L M N O P Q R S T U V W X Y Z