We Came As Romans - Shapes tab version 2

We Came as Romans- Shapes
Drop D

(0:00-0:04)|----|-------------------------||----|-------------------------||----|-------------------------||-0~-|-0-----------------------||-0~-|-0-----5p0-3-3--3-3--3h5-||-0~-|-0-0h3-------------------|
(0:05-0:17)|----------------------------------------------||-----------6-6--6-6--6------------------------||-----------9-9--9-9--9------------------------||-0---------------------0---------3-3--3-3-3h5-||-0-----5p0-------------0-----5p0-3-3--3-3-3h5-||-0-0h3-----------------0-0h3-----3-3--3-3-3h5-|
(0:18-0:30)|----------------------||----------------------||----------------------||-0-0000-0-00-0-00-0h3-||-0-0000-0-00-0-00-0h3-||-0-0000-0-00-0-00-0h3-| .... .. . ..
(1:23-1:28)|------------------||------------------||------------------||-0~---0~---0-0--0-||-0~---0~---0-0--0-||-0~---0~---0-0--0-| . . .
(1:28-1:40)|-----------------------------------||-----------------------------------||-----------------------------------||-----------------------------------||-5-0-------------0h5/8-0h7/10\8/12-||-----0-3-0-7-8-0-------------------|
|------------------------------------||------------------------------------||------------------------------------||------------------------------------||-5-0-------------0h5/8-0h7/10/12\10-||-----0-3-0-7-8-0--------------------|
4th time
|-------------------------------------------||-------------------------------------------||-------------------------------------------||------------------------------7------------||-5-0-------------0h5/8-0h7/10---10-8-7-5-4-||-----0-3-0-7-8-0---------------------------|
(1:41-1:55)|-------------------||-------------------||-------------------||-------8t-7t-5t----||-5t-8t----------8t-||-------------------|
|-10---------10----------||----10-8h10----10-11p10-||------------------------||------------------------||------------------------||------------------------|
(2:01-2:08)|-------------------------10---------------------||----------------------------10-8h10-11p10-11p10-||------------------------------------------------||-0-00000-0-0-0-0-0-00000------------------------||-0-00000-0-0-0-0-0-00000------------------------||-0-00000-0-0-0-0-0-00000------------------------| ..... . . . .....
(2:09-2:13)|-------------------------------------||-------------------------------------||-------------------------------------||-0---00-00-0-0---0-0-0-0---00-00-0-0-||-0---00-00-0-0---0-0-0-0---00-00-0-0-||-0---00-00-0-0---0-0-0-0---00-00-0-0-| . .. .. . . . . . . .. .. . .
(2:14-2:27)|---------------------------||---------------------------||-14-12-10--14-12-10--10-12-||---------------------------||-12-10-8---12-10-8---------||---------------------8--10-|
x2|--------------------------||--------------------------||--------------------------||-0-0000-0000-3-0000-8-7-0-||-0-0000-0000-3-0000-8-7-0-||-0-0000-0000-3-0000-8-7-0-| .... .... ....
(2:28-2:45)|----------------------------------------||----------------------------------------||-14-12-10--14-12-10--14-12-10--14-12-10-||----------------------------------------||-12-10-8---12-10-8---12-10-8---12-10-8--||----------------------------------------|
|---------------------------||---------------------------||---101010------------------||-0----------------00-0-0-0-||-0-8-8-8--5p0-3h5-00-0-0-0-||-0----------------00-0-0-0-|
. .. . . . |---------------------------||---------------------------||---101010------------------||-0----------------00-0-0-0-||-0-8-8-8--5p0-3h5-00-0-0-0-||-0----------------00-0-0-0-| . .. . . .
|-------------------------------||-------------------------------||---14-14-14-10p0-9h10----------||-0--------------------00-0-0-0-||-0-12-12-12-----------00-0-0-0-||-0--------------------00-0-0-0-| . .. . . .
|---------------------------||---------------------------||---101010------------------||-0----------------00-0-0-0-||-0-8-8-8--5p0-3h5-00-0-0-0-||-0----------------00-0-0-0-| . .. . . .
(2:46-2:59)|-------------------------------||-------------------------------||-----14t-10t-9t-----10t-9t-10t-||-12t------------10t------------||-------------------------------||-------------------------------|
(3:10-3:38)|---------------------------------------||---------------------------------------||---------------------------------------||-0-0-0-0-0-0-0-0-0-0-0--8888--10101010-||-0-0-0-0-0-0-0-0-0-0-0--8888--10101010-||-0-0-0-0-0-0-0-0-0-0-0--8888--10101010-|
(3:39-3:52)|----------------------------------------||----------------------------------------||----------------------------------------||-00000-0-00-----------------------------||-00000-0-00-8-8-8---10-10-12----10-12-8-||-00000-0-00-------8----------10---------| ..... . ..
Tap to rate this tab
 
# A B C D E F G H I J K L M N O P Q R S T U V W X Y Z