Wednesday 13 – Return Of The Living Dead tab

DROP C (CGCFAD)

INTRO - Verse I.

|----------------------------------------------------------||----------------------------------------------------------||-----------------------5-7-9------------------------------| 4x|-----------------------5-7-9------------------------------||-/2-0-2-0-2-0-2--0-2-0-3-5-7------------------------------||-/2-0-2-0-2-0-2--0-2-0------------------------------------|
Verse II.
|----------------------------------------------------------------||----------------------------------------------------------------||----------------------------------------------------------------| 5x|----------------------------------------------------------------||-2-0-2-0-2-0-0--------------------------------------------------||-2-0-2-0-2-0-2--------------------------------------------------|PM---------------------------------------------------------------|
Verse III.
|---------------------------------------------------------||---------------------------------------------------------||--------------9------------------------------------------| 4x|--------------9------------------------------------------||-2-0-2-0-2-0--7------------------------------------------||-2-0-2-0-2-0---------------------------------------------|
Chorus
|----------------------------------------------------------------------------||----------------------------------------------------------------------------||-5~--------------------9-----------9-----------9-----------5----------------||-5~--------------------9-----------9-----------9-----------5----------------||-3~---5~---2-0-2-0-2-0-7-0-2-0-2-0-7-0-2-0-2-0-7-0-2-0-2-0-3----5----4----3-||-----------2-0-2-0-2-0---0-2-0-2-0---0-2-0-2-0---0-2-0-2-0------5----4----3-|
Verse I.
|----------------------------------------------------------||----------------------------------------------------------||-----------------------5-7-9------------------------------| 4x|-----------------------5-7-9------------------------------||-/2-0-2-0-2-0-2--0-2-0-3-5-7------------------------------||-/2-0-2-0-2-0-2--0-2-0------------------------------------|
Verse II.
|----------------------------------------------------------------||----------------------------------------------------------------||----------------------------------------------------------------| 5x|----------------------------------------------------------------||-2-0-2-0-2-0-0--------------------------------------------------||-2-0-2-0-2-0-2--------------------------------------------------|PM---------------------------------------------------------------|
Verse III.
|---------------------------------------------------------||---------------------------------------------------------||--------------9------------------------------------------| 4x|--------------9------------------------------------------||-2-0-2-0-2-0--7------------------------------------------||-2-0-2-0-2-0---------------------------------------------|
Chorus
|----------------------------------------------------------------------------||----------------------------------------------------------------------------||-5~--------------------9-----------9-----------9-----------5----------------||-5~--------------------9-----------9-----------9-----------5----------------||-3~---5~---2-0-2-0-2-0-7-0-2-0-2-0-7-0-2-0-2-0-7-0-2-0-2-0-3----5----4----3-||-----------2-0-2-0-2-0---0-2-0-2-0---0-2-0-2-0---0-2-0-2-0------5----4----3-|
Verse I.
|----------------------------------------------------------||----------------------------------------------------------||-----------------------5-7-9------------------------------| 4x|-----------------------5-7-9------------------------------||-/2-0-2-0-2-0-2--0-2-0-3-5-7------------------------------||-/2-0-2-0-2-0-2--0-2-0------------------------------------|
SOLO Lead Guitar
|---------------------------------------------------------||---------------------------------------------------------||-16~--14~-12~-11~-9~--7~-9~\-----------------------------| 2X|---------------------------------------------------------||---------------------------------------------------------||---------------------------------------------------------|
Rhythm Guitar
|----------------------------------------------------------||----------------------------------------------------------||-----------------------5-7-9------------------------------| 4x|-----------------------5-7-9------------------------------||-/2-0-2-0-2-0-2--0-2-0-3-5-7------------------------------||-/2-0-2-0-2-0-2--0-2-0------------------------------------|
Chorus
|----------------------------------------------------------------------------||----------------------------------------------------------------------------||-5~--------------------9-----------9-----------9-----------5----------------||-5~--------------------9-----------9-----------9-----------5----------------||-3~---5~---2-0-2-0-2-0-7-0-2-0-2-0-7-0-2-0-2-0-7-0-2-0-2-0-3----5----4----3-||-----------2-0-2-0-2-0---0-2-0-2-0---0-2-0-2-0---0-2-0-2-0------5----4----3-|
Verse I. - Outro
|----------------------------------------------------------||----------------------------------------------------------||-----------------------5-7-9------------------------------| 10x|-----------------------5-7-9------------------------------||-/2-0-2-0-2-0-2--0-2-0-3-5-7------------------------------||-/2-0-2-0-2-0-2--0-2-0------------------------------------|
************************************ | / slide up | \ slide down | ~ vibrato | PM Palm Mute ************************************
Please rate this tab:
x1.0