Wednesday 13 – Home Sweet Homicide tab

Artist: Wenesday13
Song: Home Sweet Homicide
Tunning: Drop D
Tabbed by Alexi1

Didn't have much time to do this as it was late and the type up is pretty poor but 
the basic structure of the song.

------------------------------------------------------------------------|------------------------------------------------------------------------|------------------------------------------------------------------------|-3/5----------------33---------------33-----------------33--------------|-1/3-3--3-3-3-3--3--11--3--1-33-1-3--11--3--3-3-3-3--3--11--3-1-33-1-3--|-----3--3-3-3-3--3------3--1-33-1-3------3--3-3-3-3--3------3-1-33-1-3--|
------------------------------------------------------------------------|------------------------------------------------------------------------|------------------------------------------------------------------------|-33-----------------33---------------33-----------------33--------------|-11--3--3-3-3-3--3--11--3--1-33-1-3--11--3--3-3-3-3--3--11--3-1-33-1-3--|-----3--3-3-3-3--3------3--1-33-1-3------3--3-3-3-3--3------3-1-33-1-3--|
--------------------------------------------|----|--------------------------------------------|----|--------------------------------------------|----|-33-------------------33--------------------|-X2-|-11-3-3-3-3-3-3-3--3--11--3-3-3-3-1-33-1-3--|----|----3-3-3-3-3-3-3--3------3-3-3-3-1-33-1-3--|----|
-------------------------------------------------------|-------------------------------------------------------|-------------------------------------------------------|----------------5-5-5-5-5-5----------------------------|--5-5-5-5-5-5-5-3-3-3-3-3-3--3-3-3-3-3-3-1-33-1-3-3-3--|--5-5-5-5-5-5-5--------------3-3-3-3-3-3-1-33-1-3-3-3--|
-------------------------------------------------------|-------------------------------------------------------|-------------------------------------------------------|----------------5-5-5-5-5-5--3-3-3-3-3-3-5-5-5-5-5-5---|--5-5-5-5-5-5-5-3-3-3-3-3-3--1-1-1-1-1-1-3-3-3-3-3-3---|--5-5-5-5-5-5-5----------------------------------------|
--------------------------------------------|----|--------------------------------------------|----|--------------------------------------------|----|-33-------------------33--------------------|-X2-|-11-3-3-3-3-3-3-3--3--11--3-3-3-3-1-33-1-3--|----|----3-3-3-3-3-3-3--3------3-3-3-3-1-33-1-3--|----|
-------------------------------------------------------|-------------------------------------------------------|-------------------------------------------------------|----------------5-5-5-5-5-5----------------------------|--5-5-5-5-5-5-5-3-3-3-3-3-3--3-3-3-3-3-3-1-33-1-3-3-3--|--5-5-5-5-5-5-5--------------3-3-3-3-3-3-1-33-1-3-3-3--|
-------------------------------------------------------|-------------------------------------------------------|-------------------------------------------------------|----------------5-5-5-5-5-5--3-3-3-3-3-3-5-5-5-5-5-5---|--5-5-5-5-5-5-5-3-3-3-3-3-3--1-1-1-1-1-1-3-3-3-3-3-3---|--5-5-5-5-5-5-5----------------------------------------|
--------------------------------------------|----|--------------------------------------------|----|--------------------------------------------|----|-33-------------------33--------------------|-X4-|-11-3-3-3-3-3-3-3--3--11--3-3-3-3-1-33-1-3--|----|----3-3-3-3-3-3-3--3------3-3-3-3-1-33-1-3--|----|
The 'solo'
|-15br--13~-|-15br--13~-|-15br-13-15br-13-15br-13-15br-13-15br-13-15-||-----------|-----------|--------------------------------------------||-----------|-----------|--------------------------------------------||-----------|-----------|--------------------------------------------||-----------|-----------|--------------------------------------------||-----------|-----------|--------------------------------------------|bar: 1 2 3
|-13h15p13h15p13h15p13h15p13~--||------------------------------||------------------------------||------------------------------||------------------------------||------------------------------|bars: 4
Rhythm behind---------------------|----------------------|------------------------|---------------------|----------------------|------------------------|---------------------|----------------------|------------------------|-33------------------|-33-------------------|-33---------------------|-11-3-3-3-3-3-3-3--3-|-11--3-3-3-3-3-3-3-3--|-11-3-3-3-3-3-3-3-3--3--|----3-3-3-3-3-3-3--3-|-----3-3-3-3-3-3-3-3--|----3-3-3-3-3-3-3-3--3--|bars: 1 2 3
|---------------------||---------------------||---------------------||-33------------------||-11-3-3-3-3-3-3-3-3--||----3-3-3-3-3-3-3-3--|bars: 4
-------------------------------------------------------|-------------------------------------------------------|-------------------------------------------------------|----------------5-5-5-5-5-5----------------------------|--5-5-5-5-5-5-5-3-3-3-3-3-3--3-3-3-3-3-3-1-33-1-3-3-3--|--5-5-5-5-5-5-5--------------3-3-3-3-3-3-1-33-1-3-3-3--|
-------------------------------------------------------|-------------------------------------------------------|-------------------------------------------------------|----------------5-5-5-5-5-5--3-3-3-3-3-3-5-5-5-5-5-5---|--5-5-5-5-5-5-5-3-3-3-3-3-3--1-1-1-1-1-1-3-3-3-3-3-3---|--5-5-5-5-5-5-5----------------------------------------|
--------------------------------------------|-----|--------------------------------------------|-----|--------------------------------------------|-----|-33-------------------33--------------------|-X6?-|-11-3-3-3-3-3-3-3--3--11--3-3-3-3-1-33-1-3--|-----|----3-3-3-3-3-3-3--3------3-3-3-3-1-33-1-3--|-----|
------------------------------------------------------------------------|------------------------------------------------------------------------|------------------------------------------------------------------------|-33-----------------33---------------33-----------------33--------------|-11--3--3-3-3-3--3--11--3--1-33-1-3--11--3--3-3-3-3--3--11--3-1-33-1-3--|-----3--3-3-3-3--3------3--1-33-1-3------3--3-3-3-3--3------3-1-33-1-3--|
----------|----------|----------|-33-------|-11-3~~---|----3~~---|
Please rate this tab:
x1.0