Wester - Poison My Soul tab

Wester - Poison My Soul

www.westermusic.com

Tabbed by: Nicolas MALINCONICO (Link182@cannabismail.com), FRANCE

------------------------------------------------------------------
I think this is the very first tab of this great Emo/Emocore band.
This is also my first tab, so it's not perfect at all. Enjoy !
------------------------------------------------------------------
Ca doit être la 1ere tab de ce groupe Emo/Emocore. C'est aussi ma
première tablature, donc elle est loin d'être correctt !
------------------------------------------------------------------


Standard Tuning (EADGBE)

* hit many times / jouer plusieurs fois

INTRO|---------------------------------------------------------------------|------5--------------6--------------8--------------6--------5h6p5----|----5---5----------5---5----------5---5----------5---5----5-------5--|--7--------(x2)--7--------(x2)--7--------(x2)--7--------7------------|---------------------------------------------------------------------|---------------------------------------------------------------------
INTRO (with distortion) (0:20)|---------------------------------------------------------------------|------5--------------6--------------8--------------6--------5h6p5----|----5---5----------5---5----------5---5----------5---5----5-------5--|--7--------(x2)--7--------(x2)--7--------(x2)--7--------7------------|---------------------------------------------------------------------|---------------------------------------------------------------------
Hit each note many times. Listen for timing.
|--------------------------------|--------------------------------|--------------------------------|--10-9---10-9---10-9---5-7------ |--x--x---x--x---x--x---x-x------|--8--7---8--7---8--7---3-5------|--------------------------------
Hit each note many times. Listen for timing.
|--------------------------|--------------------------|---10----9----5----7------|---10----9----5----7------ |---8-----7----3----5------|--------------------------
|---------------------------------------------------------------------|---------------------------------------------------------------------|--10-10-10-10-10-10-10---9s10----------10-10-10-10-10-10-10-10--9s5--|---x--x--x--x--x--x--x---xsx--(2) then--x--x--x--x--x--x--x--x--xsx--|---8--8--8--8--8--8--8---7s8------------8--8--8--8--8--8--8--x--7s3--|------------------------------------------
Hit each note many times. Listen for timing.
|------------------------------------------|------------------------------------------|--9--10--12--10--9--7--7h9--5--3--3h5-2---|------------------------------------------|------------------------------------------|------------------------------------------
Wester - Poison My Soul www.westermusic.com Tabbed by: Nicolas MALINCONICO (Link182@cannabismail.com), FRANCE ------------------------------------------------------------------ I think this is the very first tab of this great Emo/Emocore band. This is also my first tab, so it's not perfect at all. Enjoy ! ------------------------------------------------------------------ Ca doit être la 1ere tab de ce groupe Emo/Emocore. C'est aussi ma première tablature, donc elle est loin d'être correctt ! ------------------------------------------------------------------ Standard Tuning (EADGBE) * hit many times / jouer plusieurs fois
INTRO|--------------------------------------------------------------------------------|------5--------------6--------------8--------------6--------5h6p5---------------|----5---5----------5---5----------5---5----------5---5----5-------5-------------|--7--------(x2)--7--------(x2)--7--------(x2)--7--------7-----------------------|--------------------------------------------------------------------------------|--------------------------------------------------------------------------------
INTRO (with distortion) (0:20)|--------------------------------------------------------------------------------|------5--------------6--------------8--------------6--------5h6p5---------------|----5---5----------5---5----------5---5----------5---5----5-------5-------------|--7--------(x2)--7--------(x2)--7--------(x2)--7--------7-----------------------|--------------------------------------------------------------------------------|--------------------------------------------------------------------------------
Hit each note many times. Listen for timing.
|--------------------------------|--------------------------------|--------------------------------|--10-9---10-9---10-9---5-7------ |--x--x---x--x---x--x---x-x------|--8--7---8--7---8--7---3-5------|--------------------------------
Hit each note many times. Listen for timing.
|--------------------------|--------------------------|---10----9----5----7------|---10----9----5----7------ |---8-----7----3----5------|--------------------------
|------------------------------------------------------------------------|------------------------------------------------------------------------|--10-10-10-10-10-10-10---9s10----------10-10-10-10-10-10-10-10--9s5-----|---x--x--x--x--x--x--x---xsx--(2) then--x--x--x--x--x--x--x--x--xsx-----|---8--8--8--8--8--8--8---7s8------------8--8--8--8--8--8--8--x--7s3-----|------------------------------------------
Hit each note many times. Listen for timing.
|------------------------------------------|------------------------------------------|--9--10--12--10--9--7--7h9--5--3--3h5-2---|------------------------------------------|------------------------------------------|------------------------------------------
|-------------------------------------------------------------------------------------|-------------------------------------------------------------------------------------|--7--7-7---------------5--5-5---------------3--3-3-----------------------------------|--7--7-7--7h8p7-5h7p5--5--5-5--5h7p5-3h5p5--3--3-3--3h5p3-2h3p2--7--7-7--------------|--5--5-5---------------3--3-3---------------1--1-1---------------7--7-7--7h8p7-5h7p5-|-----------------------------------------------------------------5--5-5--------------
|---------------------------0---------|---------------------------3---------|---------------------------2---------|----3h5p3------2h3p2-------0---------|-------------------------------------|-------------------------------------
|---------------------------0---------|---------------------------3---------|---------------------------2---------|----3h5p3------2h3p2-------0---------|-------------------------------------|-------------------------------------
______________________________________ Poison My Soul : Ignite my soul with penetrating lies Engulf my heart and cover up my eyes Tear me down and build me up again And to think you used to be my friend Steal my thoughts Release my tears Recreate paralyzing fear Eat out my heart Poison my soul Ash to ash and dust to dust In the end we all fall down Cry out for life Pray for death The pain it drives you To complete insanity Fallen from grace Put in your place Instigated and sentenced to death All within your final breath
Tap to rate this tab
 
# A B C D E F G H I J K L M N O P Q R S T U V W X Y Z