Whiplash – Holy Terror tab

Holy Terror (RHYTHM)

--------------------------|--------------------------|--------------------------|--2----5----4--2----------| x8 INTRO--2----3----2--2----------|--0-00---00---00-0023532--|
.. .. . .......-------------------------------- ----|--------------------------------------|--------------------------------------|--2----5----7----10----9/10/9~--------|--2----3----5----8-----7/8-/7~--------|--0-00---00---00----00----------------|
.. .. .. ..-------------------------|-------------------------|-------------------------|-----5----7----10----9~--|-----3----5----8-----7~--|--00---00---00----00-----|
.. .. .. .. x2 VERSE--------------------------------|--------------------------------|--------------------------------|-----5----7----10----9/10/9~----|-----3----5----8-----7/8-/7~----|--00---00---00----00------------|
.. .. .. ..-----------------------------------|-----------------------------------|-----------------------------------|-----5----7----5----4----2~--------|-----3----5----3----2----0~--------|--00---00---00---00---00----- ----|
.. .. .. .. ..------------------------------ -----|------------------------------------|------------------------------------|--------5~-------4~-------5~--------|--------3~-------2~-------3~--------|--00000----00000----00000-----------|
..... ..... ..... x4 CHORUS------------------------------------|------------------------------------|------------------------------------|--9-7-5-4---------------------------|--7-5-3-2---------------------------|----------- ----|
--------------------------|--------------------------|--------------------------|--2----5----4--2----------| x4 BRIDGE--2----3----2--2----------|--0-00---00---00-0023532--|
.. .. . .......-------------------------------- ----|--------------------------------------|--------------------------------------|--2----5----7----10----9/10/9~--------|--2----3----5----8-----7/8-/7~--------|--0-00---00---00----00----------------|
.. .. .. ..-------------------------|-------------------------|-------------------------|-----5----7----10----9~--|-----3----5----8-----7~--|--00---00---00----00-----|
.. .. .. .. x1 VERSE--------------------------------|--------------------------------|--------------------------------|-----5----7----10----9/10/9~----|-----3----5----8-----7/8-/7~----|--00---00---00----00------------|
.. .. .. ..-----------------------------------|-----------------------------------|-----------------------------------|-----5----7----5----4----2~--------|-----3----5----3----2----0~--------|--00---00---00---00---00----- ----|
.. .. .. .. ..------------------------------ -----|------------------------------------|------------------------------------|--------5~-------4~-------5~--------|--------3~-------2~-------3~--------|--00000----00000----00000-----------|
..... ..... ..... x4 CHORUS------------------------------------|------------------------------------|------------------------------------|--9-7-5-4---------------------------|--7-5-3-2---------------------------|----------- ----|
------------------|------------------|------------------|-----2----2----2--| x4 BRIDGE 2-----2----2----2--|--0000-0000-0000--|
... ... ...--------------------------|--------------------------|--------------------------|--2----5----4--2----------| x12 SOLO SECTION--2----3----2--2----------|--0-00---00---00-0023532--|
.. .. . .......-------------------------------- ----|--------------------------------------|--------------------------------------|--2----5----7----10----9/10/9~--------|--2----3----5----8-----7/8-/7~--------|--0-00---00---00----00----------------|
.. .. .. ..-------------------------|-------------------------|-------------------------|-----5----7----10----9~--|-----3----5----8-----7~--|--00---00---00----00-----|
.. .. .. .. x2 VERSE--------------------------------|--------------------------------|--------------------------------|-----5----7----10----9/10/9~----|-----3----5----8-----7/8-/7~----|--00---00---00----00------------|
.. .. .. ..-----------------------------------|-----------------------------------|-----------------------------------|-----5----7----5----4----2~--------|-----3----5----3----2----0~--------|--00---00---00---00---00----- ----|
.. .. .. .. ..------------------------------ -----|------------------------------------|------------------------------------|--------5~-------4~-------5~--------|--------3~-------2~-------3~--------|--00000----00000----00000-----------|
..... ..... ..... x4 CHORUS------------------------------------|------------------------------------|------------------------------------|--9-7-5-4---------------------------|--7-5-3-2---------------------------|----------- ----|
Please rate this tab:
x1.0