White Lion – Broken Heart tab ver. 2

Broken Heart By White Lion


Guitar 1 And Guitar 2

Turning : Standard

----------------------------|-------3-----2h-3p-2--------|--4-------4-----------4-----|-------------------------4--|--2-------------------------|----------------------------|
----------------------------|--3-------------------------|--2h--3--------3p--2--------|-------0-----2h-3p-2--------|---------4------------4-----|----------0-----------0-----|------------4------------4--|-------------------------0--|----------------------------|--2-------------------------|----------------------------|----------------------------|
---------------0---------|----------------------------|--2h--3-------------2----|-------3-----2h-3p-2--------|---------0---------------|--4-------4-----------4-----|------------0------------|-------------------------4--|-------------------------|--2-------------------------|-------------------------|----------------------------|
----------------------------|--3-------------------------|--2h--3--------3p--2--------|-------0-----2h-3p-2--------|---------4------------4-----|----------0-----------0-----|------------4------------4--|-------------------------0--|----------------------------|--2-------------------------|----------------------------|----------------------------|
---------------0---------|----------------------------|--2h--3-------------2----|-------3-----2h-3p-2--------|---------0---------------|----------4-----------4-----|------------0------------|-------------------------4--|-------------------------|--2-------------------------|-------------------------|----------------------------|
----------------------------|-------------------0----|--2h--3--------3p--2--------|-------------2--3-------|---------4------------4-----|----------2-------------|------------4------------4--|-------2----------------|----------------------------|--0---------------------|----------------------------|------------------------|
--------------------------|----------------------------|-----------2--3--2--------|-------3-----2h-3p-2--------|--------2-----------2-----|----------4-----------4-----|-----2-----------------2--|-------------------------4--|--0-----------------------|--2-------------------------|--------------------------|----------------------------|
----------------------------|-------------------0----|-----------------0----|--2h--3--------3p--2--------|-------------2--3-------|-------2----3---------|---------4------------4-----|----------2-------------|----------------------|------------4------------4--|-------2----------------|----------------------|----------------------------|--0---------------------|--0-------------------|----------------------------|------------------------|----------------------|
----------------------------|----------------------------|-------3-----2h-3p-2--------|--2h--3--------3p--2--------|----------4-----------4-----|---------4------------4-----|-------------------------4--|------------4------------4--|--2-------------------------|----------------------------|----------------------------|----------------------------|
-------------------0----|--------------------------|-------------2--3-------|-----------2--3--2--------|----------2-------------|--------2-----------2-----|-------2----------------|-----2-----------------2--|--0---------------------|--0-----------------------|------------------------|--------------------------|
----------------------------|----------------------------|-------3-----2h-3p-2--------|--2h--3--------3p--2--------|----------4-----------4-----|---------4------------4-----|-------------------------4--|------------4------------4--|--2-------------------------|----------------------------|----------------------------|----------------------------|
-------------------0----|-----------------0----|--3-------------3-------|-------------2--3-------|-------2----3---------|-------3-----3-----3----|----------2-------------|----------------------|----------0-------------|-------2----------------|----------------------|------------------------|--0---------------------|--0-------------------|------------------------|------------------------|----------------------|--3---------------------|
--2-------------2-------|-------------------------|-------------------------|-------3-----3-----3----|--2-------------2--------|-----2-----------2-------|----------2-------------|-------2-----2-----2-----|--2-----2-----2-----2----|--0---------------------|----------2-----------2--|-----------2-------------|------------------------|--0----------------------|-------------------------|------------------------|-------------------------|-------------------------|
--3-------------3-------|--2-------------2-------|---------------------|-------3-----3-----3----|-------3-----3-----3----|--2--L--------L------|----------0-------------|----------2-------------|---------------------|------------------------|--0---------------------|---------------------|------------------------|------------------------|--0--L--------L------|--3---------------------|------------------------|---------------------|
Overdrive Guitar -------------------|---------------------------------------|--L----------------|------------------------------3--3-----|-------------------|--4----------------4--4-------0--0-----|-------------------|--4----------------4--4-------0--0-----|--L----------------|--2----------------2--2-------x--x-----|-------------------|------------------------------3--3-----|
--------------------------|-------------------------|--------------------------|--3--3--3-----------------|----------------3--3-----|--3--3--3-----------------|--2--2--2-------2--2--x-x-|--4--4--4-------0--0-----|--2--2--2-------2--2--x-x-|--0--0--0-------2--2--x-x-|--4--4--4-------0--0-----|--0--0--0-------2--2--x-x-|----------------0--0--x-x-|--2--2--2-------x--x-----|----------------0--0--x-x-|--------------------------|----------------3--3-----|--------------------------|
-------------------------|--------------------------|-----------------------|----------------3--3-----|--3--3--3-----------------|--3--------L--------3--|--4--4--4-------0--0-----|--2--2--2-------2--2--x-x-|--0--------L--------2--|--4--4--4-------0--0-----|--0--0--0-------2--2--x-x-|--0--------L--0--0--0--|--2--2--2-------x--x-----|----------------0--0--x-x-|--x--------L--x--x-----|----------------3--3-----|--------------------------|--3--------L--3--3-----|
---------------------||------------------------|--------------------------|--L------------------||------------------------|--------------------------|--L--2--2------------||*--4------4-------------|--------------------------|--L--2--2------------||*--4------4----4--4--4--|--4--4--4--4--4--4--4--4--|-----0--0------------||---2------2----2--2--2--|--2--2--2--2--2--2--2--2--|---------------------||------------------------|--------------------------|
-----------------------|--------------------------|-----------------------|-----------------------|--------------------------|-----------------------|--2------2-------------|--------------------------|--4------4-------------|--2------2----2--2--2--|--2--2--2--2--2--2--2--2--|--4------4----4--4--4--|--0------0----0--0--0--|--0--0--0--0--0--0--0--0--|--2------2----2--2--2--|-----------------------|--------------------------|-----------------------|
--------------------------|-----------------------|---------------------------||--------------------------|-----------------------|---------------------------||--------------------------|--2------2-------------|--------------------------*||--4--4--4--4--4--4--4--4--|--2------2----2--2--2--|--2--2--2--2--2--2--2--2--*||--2--2--2--2--2--2--2--2--|--0------0----0--0--0--|--0--0--0--0--0--0--0--0---||--------------------------|-----------------------|---------------------------||
Gtr 1--3--------3--------3-----|--2--------2--------2-----|-----3--------3--------3--|-----3--------3--------3--|--------0--------0--------|--------2--------2--------|--------------------------|--------------------------|--------------------------|--------------------------|--------------------------|--------------------------|
--------------------------|-----------------------|--3--------3--------3-----|--2--------2--------2-----|--3~------2~------0----|-----3--------3--------3--|-----2--------2--------2--|-----------------------|--------0--------0--------|--------2--------2--------|-----------------------|--------------------------|--------------------------|-----------------------|--------------------------|--------------------------|-----------------------|--------------------------|
--2--------2--------2-----|------------------------|------------------------|-----3--------3--------3--|------------------------|------------------------|--------2--------2--------|--2------------L--------|------------------------|--------------------------|--2------------L--------|------------------------|--------------------------|--0------------L--------|------------------------|--------------------------|------------------0--0--|--2--2--3--2~--L--------|
Gtr 2-------|-------|--------||---------------------|----------------------|-------|-------|--------||---------------------|----------------------|-------|-------|-------*||---------------------|--7------9------11----|-------|-------|-------*||--5------7------9----|----------------------|-------|-------|--------||---------------------|--5------7-------9----|-------|-------|--------||--3------5------7----|----------------------|
---------------------|---------------------|---------------------|---------------------|--3------2-----------|---------------------|--9------2------4----|--2------2------4----|---------------------|---------2------2----|----------------2----|--5------7------9----|--7------------------|---------------------|---------------------|---------------------|---------------------|--3------5------7----|
----------------------|------------------------|------------------------|----------------------|------------------------|------------------------|--7------9------11----|--9------------L--------|------------------------|----------------------|------------------------|------------------------|--5------7-------9----|--7------------L--------|------------------------|----------------------|------------------0--0--|--2--2--3--2~--L--------|
Chorus 2-------------------------|--------------------------|-----------------------|----------------3--3-----|--3--3--3-----------------|--3--------L--------3--|--4--4--4-------0--0-----|--2--2--2-------2--2--x-x-|--0--------L--------2--|--4--4--4-------0--0-----|--0--0--0-------2--2--x-x-|--0--------L--0--0--0--|--2--2--2-------x--x-----|----------------0--0--x-x-|--x--------L--x--x-----|----------------3--3-----|--------------------------|--3--------L--3--3-----|
------------------------|-------------------------|--------------------------|--L---------------------|----------------3--3-----|--3--3--3-----------------|--L--2--2---------------|--4--4--4-------0--0-----|--2--2--2-------2--2--x-x-|--L--2--2---------x\----|--4--4--4-------0--0-----|--0--0--0-------2--2--x-x-|-----0--0---------x\----|--2--2--2-------x--x-----|----------------0--0--x-x-|------------------------|----------------3--3-----|--------------------------|
-----------------------|------------------------|--3--------L--------3--|--L---------------------|--0--------L--------2--|--L--2--2---------------|--0--------L--0--0--0--|--L--2--2---------x\----|--x--------L--x--x-----|-----0--0---------x\----|--3--------L--3--3-----|------------------------|
Solo Gtr 2
--------------------------------|-------------------------------|--2h-3p-2p-0-<>7--------L~------|-------------------------------|----------------------------2S--|--4---16-L--4S--6---18p-L--16--|--------------------------------|-------------------------------|--------------------------------|-------------------------------|--------------------------------|-------------------------------|
-------------------------------|--------------------------------------------|----------------------15-14-15-|--12-15-10-15-8-15-7-15-8-15-7-15-5-15-3-15-|--16---12~-L--------L----------|--------------------------------------------|-------------------------------|--------------------------------------------|-------------------------------|--------------------------------------------|-------------------------------|--------------------------------------------|
---------------------------------|--------------------------------|--2-3-2-3-2-3S-10~--------L------|--------------------------------|-----------------------------4S--|--6---14p-L--6S--7---16p-L--14--|---------------------------------|--------------------------------|---------------------------------|--------------------------------|---------------------------------|--------------------------------|
----------------------------|--7b--L----7----5----------|-----------------------5p-3-|---------------------8p-7h-|--14---11~-L--------L-------|---------------------------|----------------------------|---------------------------|----------------------------|---------------------------|----------------------------|---------------------------|
------------------------|---------------------------------|--5------7b----L----3S--|--5---17p-L--5S--7---19p--L--17--|------------------------|---------------------------------|------------------------|---------------------------------|------------------------|---------------------------------|------------------------|---------------------------------|
-------------------17----|--17---10-L--------------|-------------------------|-------------------------|-------------------------|-------------------------|
--17h-19p-17p-15-17p-15h-17p-15-14h-15p-14S-12----12h-14----|-----------------------------------------------15--------15-|------------------------------------------------------------|------------------------------------------------------------|------------------------------------------------------------|------------------------------------------------------------|
--14b-----L-10h-14p-10--------------|--------------------------------|-----------------------7---8-L--10--|--10brb----L-7h-10p-7-3---------|------------------------------------|--------------------------------|------------------------------------|--------------------------------|------------------------------------|--------------------------------|------------------------------------|--------------------------------|
--<>12br-----L---12br-----L---12br----|---L---12b-----L---12b------12p-10-|--------------------------------------|-----------------------------------|--------------------------------------|-----------------------------------|--------------------------------------|-----------------------------------|--------------------------------------|-----------------------------------|--------------------------------------|-----------------------------------|
--15~----------------|-------------------|---------------------|---------------------|-------------------|---------------------|---------------------|--7----------------|---------2------4----|---------------------|-------------------|--2------2------2----|---------------------|--5----------------|--0------------------|---------------------|-------------------|---------------------|
---------------------|---------------------|----------------------|--3------2-----------|---------------------|----------------------|--2------2------4----|---------------------|--7------9------11----|----------------2----|--5------7------9----|----------------------|---------------------|---------------------|--5------7-------9----|---------------------|--3------5------7----|----------------------|
------------------------|------------------------|-------|-------|-------|------------------------|------------------------|-------|-------|-------|--9------------L--------|------------------------|-------|-------|-------|------------------------|------------------------|-------|-------|-------|--7------------L--------|------------------------|-------|-------|-------|------------------0--0--|--2--2--3--2~--L--------|-------|-------|-------|
Outro
Gtr 1---------------------|---------------------|--------4------------|--------4------------|--2--2--2------------|---------------------|
------------------------|---------------------|------------------------|------------------------|---------------------|------------------------|--L------------L--------|---------------------|------------------------|--L------------L--------|--------5------------|--L------------L--------|--L------------L--------|--------5------------|--L------------L--------|------------------0--0--|--3--3--3------------|--L------------L--0--0--|
---------------------|------------------------|-----------------------|---------------------|------------------------|-----------------------|---------------------|------------------------|------------------4----|--------7------------|--L------------L--------|--9-------4-------4----|--------7------------|--L------------L--------|--9-------4-------2----|--5--5--5------------|--L------------L--0--0--|--7-------2------------|
Outro
Gtr 2-------|---------------------|---------------------|---------------------|-------|---------------------|---------------------|---------------------|-------|--4--------4----6----|--7------6------4----|--4--------4----6----|-------|---------------------|---------------------|---------------------|-------|--2--------2----4----|--5------4------2----|--2--------2----4----|-------|---------------------|---------------------|---------------------|
----------------------|---------------------|---------------------|----------------------|---------------------|---------------------|--7----9--4--L--------|--4--------4----6----|--7------6------4----|----------------------|---------------------|---------------------|--5----7--2--L--------|--2--------2----4----|--5------4------2----|----------------------|---------------------|---------------------|
--7---------------------|-------------------|-------------------|----------7-------------|-------------------|-------------------|------------------4~----|--L----------------|--L----------------|------------------------|-------------------|-------------------|------------------------|-------------------|-------------------|------------------------|-------------------|-------------------|
Please rate this tab:
x1.0