White Stripes - Dead Leaves And The Dirty Ground tab

ARTIST:THE WHITE STRIPES              TRANSCRIBED:MARK ARMENTA
SONG:DEAD LEAVES AND THE DIRTY GROUND  
ALBUM:WHITE BLOOD CELLS               (CHORDS USED AT BOTTOM)

 NOW BEFORE I START I WANNA GET SOMETHING OFF MY CHEST IF I SEE ONE
MORE TAB THAT SAYS "THIS IS MY FIRST TAB SO DONT BEAT ME UP ABOUT IT"
THAT PISSES ME OFF,IF YOU DONT FEEL CONFIDENT WITH WHAT YOU'VE DONE 
THEN DON'T PUT IT UP.(NOTE:DO NOT! TRY TO HIT EVEREY NOTE IN THE INTRO
JUST USE IT AS REFERENCE.YOU'LL GO CRAZY IF YOU DO NOTE FOR NOTE)
INTRO
----------------------------------------------------------------------
----------------------------------------------------------------------
------------------------------------------------------REPEAT 2X-------
-------------------------------------------2---------------------------------------------------------------------0---------------------------5---5---5-0--3----3--3-0--2--2-0--1---1-0----------------------------
-------------------------------------------------------------------------------------------------------------------------------------------------2------0--0--0---------------------0--0--0----2-----------------------2------0--0--0----------------2-2--0--0--0----2-----------------------0------X--X--X----------------0-0--X--X--X----0-------------------3b-----0-0-3--3--3----2--2-0--1-0------3--3--3b-------3--3--3-0------
----------------------------|----------------------------|-------------------0--------|----------------2--0--------|----------------0--X--------|-2---2-0-1--1-0----3b-------|
----------------------------------------------------------------2-----3p2-----------------------------------------2------------2-----------------------0---------0-------0-----2-----0--------2--2------------------0---------2-------4-----2----------------0----------0------0h2---------3-----3/5-----0-------0-------------------------0h3--------------------------------------------
---------------------------------------------------------------|-----3p2---------------0-------------------------2-------------|---2-------2---------0--------0--------0-0-----2---0-0---------|-2-------2---------0--------2---2----0-------2-----0-----------|----------------0h2------3-------/5-------0--------------------|-------------0h3-----------------------------------------------|
VERSE: A G C D5 A5 DEAD LEAVES AND THE DIRTY GROUND WHEN I KNOW YOUR NOT AROUND A5 G C D5 A5 SHINY TOPS AND SODA POPS WHEN I HEAR YOUR LIPS MAKE A SOUND F5 G5 A WHEN I HEAR YOUR LIPS MAKE A SOUND G C D5/A A5 THIRTY NOTES IN THE MAILBOX WILL TELL YOU THAT IM COMIN HOME A G C D A AND I THINK IM GONNA STICK AROUND FOR A WHILE SO YOUR NOT ALONE F5 G5 A FOR A WHILE SO YOUR NOT ALONE (NEXT PART HAS HEAVY DISTORTION AND FEEDBACK)
---------------------------0-------------------|-----------------------2-----2-------------------0-------------------|-2-----2---------------2-X-X-2-X-X--4-------4-------5---7-----2---0--|-2-X-X-2-X-X-4-----4---2-X-X-2-X-X--5--X-X--5-------5---7--%--2---0--|-2-X-X-2-X-X-5-X-X-5---0-X-X-0-X-X--5--X-X--5--5----3---5-----0---X--|-0-X-X-0-X-X-5-X-X-5----------------3--X-X--3--3--------5---------3--|-------------3-X-X-3--
2ND VERSE--------------------------------------------------------------------------------------------------------------------------------------------------------------------------------------------------------------------------------------------------------------------------------------------------------------------------------------------------------0---------------------------3----------------------2---------1-------------3
IF YOU CAN HEAR A PIANO FALL YOU CAN HEAR ME COMIN DOWN THE HALL A G C IF I COULD JUST HEAR YOUR PRETTY VOICE I DONT THINK I NEED TO D5/A A5 SEE AT ALL D5 G A5 DONT THINK I NEED TO SEE AT ALL G5 C D5/A A SOFT HAIR AND A VELVET TONGUE I WANT TO GIVE YOU WHAT YOU GIVE TO ME A5 G C5/G D5/A A AND EVERY BREATH THAT IS IN YOUR LUNGS IS A TINY LITTLE GIFT TO ME F5 G5 A IS A TINY LITTLE GIFT TO ME
------------------------------------------------------------------2----2-----------------------2--------2--------------2-----------2----2-----4-----4----5--7---2--0-2---2--------5--7--2-----------2----2-----5-X-X-5--5-5--5-%-2--0-2---2--5--5--5--7--2-----------0----0-----5-X-X-5--5-3--5---0--X-0-X-0--5--5--3--5--0--------------0---X-0-3-X-X-3--3-----------3--------3--3--3--5-------------
BRIDGE:
----------------------------------------------------------------------------------7--------------------------------------------------------7-----7-----7--7---7---7---7---7-------------------------------------7-X-X-7-X-X-7-X7---7-X-7-X-7-X-7--7-----7------7-------7---------5---5-----5-----5--5---5---5---5---5--7-----7------7-------7---------5-------------------------------------5-----5------5-------5---------3--I DIDNT FEEL SO BAD TILL THE SUN WENT DOWN
---------------------------------------------------------------------------------7----7----7----7----7----7----7-------------------------------------7----7----7----7----7----7----7-------------------------7--7--7--7--7----7----7----7----7----7----7-------------------------7--7--5--7--5----5----5----5----5----5----5-------------------------5--5--5--5--------------------------------------------------------- THEN I COME HOME NO ONE TO MY ARMS AROUND
-------------------------------------------------------------------------------------------------------------------------------------------------3---3---3---3--------5---5---5------------------3---3---3---3--------5---5---5------------------1---1---1---1---1/3--3---3---3--0-------------- WRAP MY ARMS AROUND
---------------------------------------------------------------------------------------------------------------------------------2---------------------------------------------------------------2---------------------------------------------------------------0-------------------------------------------------0--------------------------------3-------------2--------1-----------------3-- WELL ANY MAN WITH A MICROPHONE TELL YOU WHAT HE LOVES THE MOST
A5 G C D5/A AND YOU KNOW WHY YOU LOVE AT ALL IF YOU'RE THINKING OF THE HOLY A GHOST F5 G5 A IF YOUR THINKING OF THE HOLY GHOST OUTRO:
--------------------------0---------0-----3--------------3------------------X--3p2--2-2--------0------0--0---1-0--0h3------------0--1-3-2--2---2----2----2-2-----------0---0------0----0h2--2----0----0--0-2-2--2-------------2-2------0----0---0------2----0----2----0----0--2-0-2--0---------------------------2----------3---------0------------3---0---------------------0h3------3-----------------------3---------------
CHORDS USED IN SONG: A5:XO22XX D5/A:XOO23X G5:3XOO33 D:XXO232 F#5:24XXXX Glll:3554XX F5:13XXXXX C5:X355XX G:3XOOO3 D5v/A:5577XX(5th fret) A:X0222X D5v:X577XX(5th fret) C:X32O1X Dv:X1444X Dadd4:X54OXX A5v:567XXX D5:XXO23X G5lll:355XXX GOOD LUCK THIS TOOK ME A WHILE SO I HOPE IT HELPS IF NOT YOU HAVE PROBLEMS
Tap to rate this tab
 
# A B C D E F G H I J K L M N O P Q R S T U V W X Y Z