White Stripes – Jumble Jumble tab

|---------------------------||---------------------------||--8--8----6--6--8-8--6-----| tune your guitar to stanard then it sounds |--9--9----7--7--9-9--7-----|perfect|--9--9----7--7--9-9--7-----||--7--7----5--5--7-7--5-----|
|-------||-------||-------| x1|-------||-------||--7-6b-|
|---------------------------||---------------------------| x1|--8--8----6--6--8-8--6-----||--9--9----7--7--9-9--7-----||--9--9----7--7--9-9--7-----||--7--7----5--5--7-7--5-----|
|-------||-------||-------||-------| x1|-------||--7-6b-|
|---------------------------||---------------------------| x2|--8--8----6--6--8-8--6-----||--9--9----7--7--9-9--7-----||--9--9----7--7--9-9--7-----||--7--7----5--5--7-7--5-----|
|----------------||----------------||---7---5--------||---7---5--------||---5---3--------||----------------|
|------------------------------||------------------------------| |--8--8----6--6--8-8--6---6----||--9--9----7--7--9-9--7---7----||--9--9----7--7--9-9--7---7----|x1|--7--7----5--5--7-7--5---5----|
|--10-9-10-9-10-9-10-9-10-9-10-9b---------||-----------------------------------------||-----------------------------------------|x1|-----------------------------------------||-----------------------------------------||-----------------------------------------|
|----||----||-6--||-7--|x1|-7--||-5--|
|--10-9-10-9-10-9-10-9-10-9-10-9b---------||-----------------------------------------||-----------------------------------------|x1|-----------------------------------------||-----------------------------------------||-----------------------------------------|
|----||----||-6--||-7--|x1|-7--||-5--|
|--10-9-10-9-10-9-10-9-10-9-10-9b---------||-----------------------------------------||-----------------------------------------|x1|-----------------------------------------||-----------------------------------------||-----------------------------------------|
|---------------------------||---------------------------||--8--8----6--6--8-8--6-----||--9--9----7--7--9-9--7-----||--9--9----7--7--9-9--7-----||--7--7----5--5--7-7--5-----|
|-------||-------||-------| x1|-------||-------||--7-6b-|
|---------------------------||---------------------------| x1|--8--8----6--6--8-8--6-----||--9--9----7--7--9-9--7-----||--9--9----7--7--9-9--7-----||--7--7----5--5--7-7--5-----|
|-------||-------||-------||-------| x1|-------||--7-6b-|
|---------------------------||---------------------------| x2|--8--8----6--6--8-8--6-----||--9--9----7--7--9-9--7-----||--9--9----7--7--9-9--7-----||--7--7----5--5--7-7--5-----|
|----------------||----------------||---7---5--------||---7---5--------||---5---3--------||----------------|
|------------------------------||------------------------------| |--8--8----6--6--8-8--6---6----||--9--9----7--7--9-9--7---7----||--9--9----7--7--9-9--7---7----|x1|--7--7----5--5--7-7--5---5----|
|--10-9-10-9-10-9-10-9-10-9-10-9b---------||-----------------------------------------||-----------------------------------------|x1|-----------------------------------------||-----------------------------------------||-----------------------------------------|
|----||----||-6--||-7--|x1|-7--||-5--|
|--10-9-10-9-10-9-10-9-10-9-10-9b---------||-----------------------------------------||-----------------------------------------|x1|-----------------------------------------||-----------------------------------------||-----------------------------------------|
|----||----||-6--||-7--|x1|-7--||-5--|
|--10-9-10-9-10-7-10-12-10-12-10b-||---------------------------------||---------------------------------||---------------------------------||---------------------------------||---------------------------------|
|------------------------------||------------------------------| |--8--8----6--6--8-8--6---6----||--9--9----7--7--9-9--7---7----||--9--9----7--7--9-9--7---7----|x1|--7--7----5--5--7-7--5---5----|
thats the end
Please rate this tab:
x1.0