White Stripes - Death Letter Live tab

this is continued from death letter live intro. Before i couldn't be bothered to do all of it.

after the intro its the riff:

|----------------------------------------------------||----------------------------------------------------||----------3-0-3-3-3-3-3-----------------------------||----------0-0-0-0-0-0-0-----------------------------||--0----0--------------------------------------------||----3b----------------------------------------------|which is repeated 4 a long time until it comes to the chords
|-----------------------------------------5------------||-0-3/5-5-5-5-5----0-3/5-5-5-5-5\-0--------------------||-0-3/5-5-5-5-5----0-3/5-5-5-5-5\-0--------------------||-0-3/5-5-5-5-5----0-3/5-5-5-5-5\-0---3-0--------------||-0-3/5-5-5-5-5----0-3/5-5-5-5-5\-0--------------------||------------------------------------------------------|
|------------------5-----------------------------------||------------------------/7-7-7-7-7---0--/5-5-5-5------||------------------------/7-7-7-7-7---0--/5-5-5-5------||--0-0------0--3-0-------/7-7-7-7-7---0--/5-5-5-5------||--0-0------0------------/7-7-7-7-7---0--/5-5-5-5------||--0-0---3b-0------------------------------------------|
|------------5----------------5----------------------||-5\-0-----------------------------------------------||-5\-0-----------------------------------------------||-5\-0---3-0----0-0----0--3-0---0-0----0-------------||-5\-0----------0-0----0--------0-0----0-------------||---------------0-0-3b-0--------0-0-3b-0-------------|then its back to the riff which is played several times
|----------------------------------------------------||----------------------------------------------------||----------3-0-3-3-3-3-3-----------------------------||----------0-0-0-0-0-0-0-----------------------------||--0----0--------------------------------------------||----3b----------------------------------------------|
then back to the chords again
|-----------------------------------------5------------||-0-3/5-5-5-5-5----0-3/5-5-5-5-5\-0--------------------||-0-3/5-5-5-5-5----0-3/5-5-5-5-5\-0--------------------||-0-3/5-5-5-5-5----0-3/5-5-5-5-5\-0---3-0--------------||-0-3/5-5-5-5-5----0-3/5-5-5-5-5\-0--------------------||------------------------------------------------------|
|------------------5-----------------------------------||------------------------/7-7-7-7-7---0--/5-5-5-5------||------------------------/7-7-7-7-7---0--/5-5-5-5------||--0-0------0--3-0-------/7-7-7-7-7---0--/5-5-5-5------||--0-0------0------------/7-7-7-7-7---0--/5-5-5-5------||--0-0---3b-0------------------------------------------|
then its the decending part leading to the solo
|-------------------------------------------------------||-----------------------------0---/5-5-5-5-5/7\---------||-----------------------------0---/5-5-5-5-5/7\---------||-----------------------------0---/5-5-5-5-5/7\---------||-----5-5---3-3---2-2---1-1---0---/5-5-5-5-5/7\---------||---5-----3-----2-----1-----0---------------------------|
then he slams on his distortion pedal
|------------------------------------------------------||--0--3-3-3-0-0-0-0--/12--0-3-3-3-0-0-0-0-/12----------||--0--3-3-3-0-0-0-0--/12--0-3-3-3-0-0-0-0-/12----------||--0--3-3-3-0-0-0-0--/12--0-3-3-3-0-0-0-0-/12----------||--0--3-3-3-0-0-0-0--/12--0-3-3-3-0-0-0-0-/12----------||------------------------------------------------------|
|-----------------------------------------------------||-----------------------------------------------------||-0-3-0-5-0-3-0-3-0-8\3-0-3-0-3-0-3-0-3/5-0-----------||-----------------------------------------------------||-----------------------------------------------------||-----------------------------------------------------|
then he puts his whammy up an octave
|---------5-5----------------------------------------------||-------------5--------------------------------------------||-----3/5-------5-3/12-----12\0--3-0-3-0-3-5-0-3\2-0-------||----------------------------------------------------------||----------------------------------------------------------||----------------------------------------------------------|
shake your slide quickly on the 12's, and let ring..|-----------12-----12----12\--15--15--15--15--15------------||-----------------------------15--15--15--15--15------------||-----10/12-----12---12----\--15--15--15--15--15------------||-----------------------------------------------------------||-----------------------------------------------------------||-----------------------------------------------------------|
|--15--15--12-12\----------------------------------------------||--15--15--12-12\----------------------------------------------||--15--15--12-12\---0--5/7--7-7--0-5/7-7-7\--0--7/10-10-0--10--||--------------------------------------------------------------||--------------------------------------------------------------||--------------------------------------------------------------|
|------------------------------------------------------||------------------------------------------------------||--10-10\----------------------------------------------||------------------------------------------------------||------------------------------------------------------||------------------------------------------------------|
then the whammy is stepped on and put back to normal with the decending bit leading back the second verse, also the distortion is turned off as well
|------------------------------------------------------||---------------------------------0--/7-7-7-7-7--------||---------------------------------0--/7-7-7-7-7--------||---------------------------------0--/7-7-7-7-7--------||--------5-5---3-3---2-2---1--1---0--/7-7-7-7-7--------||------5-----3-----2-----1-----0-----------------------|
|---0-----------------------------------------------||---0-----------------------------------------------||---0------3-0-3-3-3-3-3-----3-0-3-3-3-3-3----------||---0------0-0-0-0-0-0-0-----0-0-0-0-0-0-0----------||---0-----------------------------------------------||---0-----------------------------------------------|
|----------------------------------------------------||----------------------------------------------------||----------3-0-3-3-3-3-3-----------------------------||----------0-0-0-0-0-0-0-----------------------------||--0----0--------------------------------------------||----3b----------------------------------------------|
played several times again then back to the chords again
|-----------------------------------------5------------||-0-3/5-5-5-5-5----0-3/5-5-5-5-5\-0--------------------||-0-3/5-5-5-5-5----0-3/5-5-5-5-5\-0--------------------||-0-3/5-5-5-5-5----0-3/5-5-5-5-5\-0---3-0--------------||-0-3/5-5-5-5-5----0-3/5-5-5-5-5\-0--------------------||------------------------------------------------------|
|------------------5-----------------------------------||------------------------/7-7-7-7-7---0--/5-5-5-5------||------------------------/7-7-7-7-7---0--/5-5-5-5------||--0-0------0--3-0-------/7-7-7-7-7---0--/5-5-5-5------||--0-0------0------------/7-7-7-7-7---0--/5-5-5-5------||--0-0---3b-0------------------------------------------|
then its back to the riff where he goes quiet
|----------------------------------------------------||----------------------------------------------------||----------3-0-3-3-3-3-3-----------------------------||----------0-0-0-0-0-0-0-----------------------------||--0----0--------------------------------------------||----3b----------------------------------------------|
then back to chords again
|-----------------------------------------5------------||-0-3/5-5-5-5-5----0-3/5-5-5-5-5\-0--------------------||-0-3/5-5-5-5-5----0-3/5-5-5-5-5\-0--------------------||-0-3/5-5-5-5-5----0-3/5-5-5-5-5\-0---3-0--------------||-0-3/5-5-5-5-5----0-3/5-5-5-5-5\-0--------------------||------------------------------------------------------|
|------------------5---------------------------------------||------------------------/7-7-7-7-7---0--/10-10-10-10------||------------------------/7-7-7-7-7---0--/10-10-10-10------||--0-0------0--3-0-------/7-7-7-7-7---0--/10-10-10-10------||--0-0------0------------/7-7-7-7-7---0--/10-10-10-10------||--0-0---3b-0----------------------------------------------|then its the part leading to the second solo
|------------------------------------------------------||-0-3-3-3-3-2-2-2-2-1-1-1-1-0---5/7-7-7-7-7-7-7--------||-0-3-3-3-3-2-2-2-2-1-1-1-1-0---5/7-7-7-7-7-7-7--------||-0-3-3-3-3-2-2-2-2-1-1-1-1-0---5/7-7-7-7-7-7-7--------||-0-3-3-3-3-2-2-2-2-1-1-1-1-0---5/7-7-7-7-7-7-7--------||------------------------------------------------------|
he turns his distortion on now
|---------------------------------------------------------||----10\----0-3-3-3-0-0-0-0----/12--0-3-3-3-0-0-0-0-------||----10\----0-3-3-3-0-0-0-0----/12--0-3-3-3-0-0-0-0-------||----10\----0-3-3-3-0-0-0-0----/12--0-3-3-3-0-0-0-0-------||----10\----0-3-3-3-0-0-0-0---------0-3-3-3-0-0-0-0-------||---------------------------------------------------------|
|----------------12--12--------12----------12-12\----||----/12---------------------------------------------||----/12---10/12--------10/12------12--12------------||----/12---------------------------------------------||----------------------------------------------------||----------------------------------------------------|
|-10/12-12-12-12---10/12-12-12-12\------------------------||-10/12-12-12-12---10/12-12-12-12\------------------------||-10/12-12-12-12---10/12-12-12-12\------------------------||-10/12-12-12-12---10/12-12-12-12\------------------------||---------------------------------------------------------||---------------------------------------------------------|
then he sets his whammy up an octave again
|-------------------------------------------------------||-------------------------------------------------------||--0-5-5-5-0-5\--/10--0-0-3-0-3/5-0-0-3-0-5-3-0---------||-------------------------------------------------------||-------------------------------------------------------||-------------------------------------------------------|
|----------------------------------12---12---12------------||----------------------------------------------------------||---12---0-3\2-0-0--3\2-0-0-3\2--12---12---12--------------||----------------------------------------------------------||----------------------------------------------------------||----------------------------------------------------------|
|--------------------------------------------------------||--------------------------------------------------------||--0--5/7-7-7-0-5/7-7-0-7/10-10-10--0-7/10-10\-----------||--------------------------------------------------------||--------------------------------------------------------||--------------------------------------------------------|
|----------------------------------------------------||--0-0-0-3~-0-0-0-3~-0-------------------------------||--0-0-0-3~-0-0-0-3~-0-------------------------------||--0-0-0-3~-0-0-0-3~-0-------------------------------||--0-0-0-3~-0-0-0-3~-0-------------------------------||----------------------------------------------------|
this is the park where he screams into the microphone|-------------------------------------------------||-0-0-3-3-0-0-3-3-0-0-3-3-0-0-3-3-----------------||-0-0-3-3-0-0-3-3-0-0-3-3-0-0-3-3-----------------||-0-0-3-3-0-0-3-3-0-0-3-3-0-0-3-3-----------------||-0-0-3-3-0-0-3-3-0-0-3-3-0-0-3-3-----------------|X2 i think.....|-------------------------------------------------|
|---------------------------------------------------||--5------------------------------------------------||--5------------------------------------------------||--5-X12 (about that, it depends how u strum)-------||--5------------------------------------------------||---------------------------------------------------|
played quickly|----------5----------------5---/5-5-5--7-7-7---------||-5\----------------------------/5-5-5--7-7-7---------||-5\----------------------------/5-5-5--7-7-7---------||-5\---3-0---0-0----0---3-0-----/5-5-5--7-7-7---------||-5\---------0-0----0-----------/5-5-5--7-7-7---------||------------0-0-3b-0---------------------------------|
|------------------------0--/5-5-5-5-5------------||------------------------0--/5-5-5-5-5------------||------------------------0--/5-5-5-5-5------------||-------5---3---2---1----0--/5-5-5-5-5------------||------------------------0--/5-5-5-5-5------------||-----5---3---2---1---0---------------------------|
i think the solo is done manely on the 12th fret, but i think he also goes up 2 the 15th as well. just go crazy or sumthing i dunno(whammy still on)|-----------------------------------------------------||-----------------------------------------------------||----0-/7-7-7-7-7-7-7-0-7/10-10-10-10--10--10-10------||-----------------------------------------------------||-----------------------------------------------------||-----------------------------------------------------|
|----------------------------------------------------||----------------------------------------------------||--0-/5-5-5-5-5-5-5--0-/8-8-8-8-8-8-8----------------||----------------------------------------------------||----------------------------------------------------||----------------------------------------------------|
whammy turned off
|---7-----10------5----8-------------------------------||---7-----10------5----8-------------------------------||---7-X7--10-X7---5-X7-8-X7----------------------------||---7-----10------5----8-------------------------------||---7-----10------5----8-------------------------------||------------------------------------------------------| X4
|-0-3-0-3-0-3-0-3-------0-----------------------------||-0-3-0-3-0-3-0-3-------0-----------------------------||-0-3-0-3-0-3-0-3--X4---0-----------------------------||-0-3-0-3-0-3-0-3-------0-----------------------------||-0-3-0-3-0-3-0-3-------0-----------------------------||-----------------------------------------------------|
then its the grinning in ur face bit which i cba 2 rite out
Tap to rate this tab
 
# A B C D E F G H I J K L M N O P Q R S T U V W X Y Z