White Stripes - Little Cream Soda tab

Little Cream Soda by the White Stripes
Icky Thump (2007)
(standard tuning)

h   hammer on
p   pull off
b   bend
pb  pre bend
r   release bend
/   slide up
\   slide down
*   natural harmonic
ra  rake

One, two, three, four...|----------------------------||----------------------------||----------------------------||----------5-4-----------5-4-||-2--2--2--3-2--2--2--2--3-2-||-0--0--0-------0--0--0------|4 times
|----------20-19----------------------------20-19--------------15---||---------------------------20-15-----------20-19--------------18b--||-------------------------------------------------------------------||-------------------------------------------------------------------||-------------------------------------------------------------------||-0--0--0----------0--0--0---------0-000-00----------0--000--00-----|
-----------20-19----------------------------20-19-------------15---15---|----------------------------20-15-----------------------------18b--18b--|------------------------------------------------------------------------|------------------------------------------------------------------------|------------------------------------------------------------------------|-0-000-00----------0-000-00---------0-000-00--------0--000--00----------|
-----------19h20p19----------19h20p19---------------------19h20p19----|-------------------17----------------19h20p19---------------------17--|---------------------------------------------16-----------------------|----------------------------------------------------------------------|----------------------------------------------------------------------|-0-000-00-------------0-000----------------------0-000-00-------------|
-----------19h20p19-------------15---15---|-------------------17-----------18b--18b--|------------------------------------------|------------------------------------------|------------------------------------------|-0-000-00-------------0-000-00------------|
----------19h20p19--------19h20p19--------------------19h20p19---19h20p19---|------------------17--------------19h20p19---------------------17--------17-|------------------------------------------16--------------------------------|----------------------------------------------------------------------------|----------------------------------------------------------------------------|-0-000-00------------0-000--------------------0-000-00----------------------|
---------15---15---|---------18b--18r--|-------------------|-------------------|-------------------|--0-000------------|
|----------------------------||----------------------------||----------------------------||----------5-4-----------5-4-||-2--2--2--3-2--2--2--2--3-2-||-0--0--0-------0--0--0------|2 times
|---------------------------------------------------||---------------------------------------------------||---------------------------------------------------||---------------------------------------------------||-------3p2----------------------3p2----------------||--0---------0h3-3--0h3-3---0---------0h3-3--0h3-3--|
---------------------------------------------------|---------------------------------------------------|---------------------------------------------------|---------------------------------------------------|-------3p2----------------------3p2----------------|--0---------0h3-3--0h3-3---0---------0h3-3--0h3-3--|Well every highway that I go down seems to be longer then the last one that I knew about. Oh well.
----------------------------------------------------|--0-------------------------------------------------|--1-------------------------------------------------|--2-------------------------------------------------|--2----3p2----------------------3p2-----------------|--0---------0h3-3--0h3-3---0---------0h3-3--0h3-3---|Yeah, and every girl that I walk around seems to be more of an illusion then the last that I found. Oh well....
---------------------------------------------------|---------------------------------------------------|---------------------------------------------------|---------------------------------------------------|-------3p2----------------------3p2----------------|--0---------0h3-3--0h3-3---0---------0h3-3--0h3-3--|...and there's so many in front of me wearing canes and ruby rings. It's like a (?) when he sings.
---------------------------|---------------------------|---------------------------|---------------------------|-------3p2-----------------|--0---------0h3-3--0h3-3---| With every chance to set himself on fire he just ends up doin' the same thing.
|-----------20-19----------------------------20-19-------------15---15---||----------------------------20-15-----------------------------18b--18b--||------------------------------------------------------------------------||------------------------------------------------------------------------||------------------------------------------------------------------------||-0-000-00----------0-000-00---------0-000-00--------0--000--00----------|
-----------20-19----------------------------20-19-------------15---15---|----------------------------20-15-----------------------------18b--18r--|------------------------------------------------------------------------|------------------------------------------------------------------------|------------------------------------------------------------------------|-0-000-00----------0-000-00---------0-000-00--------0--000--00----------|
----------19h20p19--------19h20p19--------------------20h22p20------|------------------17--------------19h20p19--------------------21----|------------------------------------------16------------------------|--------------------------------------------------------------------|--------------------------------------------------------------------|-0-000-00------------0-000--------------------0-000-00--------------|
---------15---15------------19h20p19-----------19h20p19---------------|---------18b--18r-------------------17-----------------17-19h20p19----|------------------------------------------------------------------16--|----------------------------------------------------------------------|----------------------------------------------------------------------|--0-000------------0-000-00-------------0-000-------------------------|
------------20h22p20-------------15--15----|--------------------21-----------18b-18br--|-------------------------------------------|-------------------------------------------|-------------------------------------------|--0-000-00--------------0-000-00-----------|
|----------------------------||----------------------------||----------------------------||----------5-4-----------5-4-||-2--2--2--3-2--2--2--2--3-2-||-0--0--0-------0--0--0------|2 times
|---------------------------------------------------||---------------------------------------------------||---------------------------------------------------||---------------------------------------------------||-------3p2----------------------3p2----------------||--0---------0h3-3--0h3-3---0---------0h3-3--0h3-3--|
---------------------------------------------------|---------------------------------------------------|---------------------------------------------------|---------------------------------------------------|-------3p2----------------------3p2----------------|--0---------0h3-3--0h3-3---0---------0h3-3--0h3-3--|Well each beautiful thing I come across tells me to stop moving and shake this riddle off. Oh well.
-------------------------------------------------------|-------------------------------------------------------|-------------------------------------------------------|-------------------------------------------------------|--2--2--2--2---2--2--2--2---2--2--2--2---2--2--2--2----|--0--0--0--0-3-0--0--0--0-3-0--0--0--0-3-0--0--0--0-3--|And there was a time when all I wanted was my ice cream cold and a little cream soda, oh well, oh well.
---------------------------------------------------------------|---------------------------------------------------------------|---------------------------------------------------------------|---------------------------------------------------------------|--2--2--2--2---2--2--2--2---2--2--2--2---2--2--2--2---2--2--2--|--0--0--0--0-3-0--0--0--0-3-0--0--0--0-3-0--0--0--0-3-0--0--0--|And a wooden box and a alley full of rocks was all I had to care about, oh well.
----------------------------------------|----------------------------------------|----------------------------------------|--5-4--------5-4------5-4--------5-4----|--3-2-2------3-2-2----3-2-2------3-2-2--|------0----------0--------0----------0--|
------------------------------------|------------------------------------|------------------------------------|--5-4------5-4------5-4------5-4----|--3-2-2----3-2-2----3-2-2----3-2-2--|------0--------0--------0--------0--|And now my mind is filled with rubber tires and forest fires and wonderin' I'm a liar lots of other situations where...
------------------------------------|------------------------------------|------------------------------------|--5-4------5-4------5-4------5-4----|--3-2-2----3-2-2----3-2-2----3-2-2--|------0--------0--------0--------0--|...I don't know what to do at which time God screams to me "There's nothing left for me to tell you!"
|-----------20-19----------------------------20-19-------------15---||----------------------------20-15-----------------------------18b--||-------------------------------------------------------------------||-------------------------------------------------------------------||-------------------------------------------------------------------||-0-000-00----------0-000-00---------0-000-00--------0--000--00-----|Nothing left for me to tell you
-----------20-19----------------------------20-19-------------15---15---|----------------------------20-15-----------------------------18b--18br-|------------------------------------------------------------------------|------------------------------------------------------------------------|------------------------------------------------------------------------|-0-000-00----------0-000-00---------0-000-00--------0--000--00----------|Nothing left!
----------19h20p19--------19h20p19--------------------20h22p20------|------------------17--------------19h20p19--------------------21----|------------------------------------------16------------------------|--------------------------------------------------------------------|--------------------------------------------------------------------|-0-000-00------------0-000--------------------0-000-00--------------|Oh well, oh well, oh well. Oh well. Oh well, oh well, oh well. Oh Well.
---------15---15---|---------18b--18r--|-------------------|-------------------|-------------------|--0-000------------|
----------------------------------------------------------------|--------15h17p15---19h20p19------------15h17p15---19h20p19------|----------------16---------21--------------------16---------21--|----------------------------------------------------------------|----------------------------------------------------------------|-0-000---------------------------0-000--------------------------|
-----------------------------------|---------15h17p15---19h20p19-------|-----------------16---------21-----|-----------------------------------|--------------------------------2--|-0-000--------------------------0--|
|---------------------------------------------------------------||---------------------------------------------------------------||---------------------------------------------------------------||--5-4------5-4------5-4------5-4------5-4------5-4------5-4----||--3-2-2----3-2-2----3-2-2----3-2-2----3-2-2----3-2-2----3-2-2--||------0--------0--------0--------0--------0--------0--------0--|
Tap to rate this tab
 
# A B C D E F G H I J K L M N O P Q R S T U V W X Y Z