Whitechapel - Possession chords

Whitechapel - Possession

i learned this song by ear so not ENTIRLEY sure if its right... but pretty darn close!!!
tuning is drop A

|----------------------------------------------||----------------------------------------------||----------------------------------------------||----------------------------------------------| first time|----------------------------------------------||-2b-00-11--11-1--11-11--11-1--11-11--11-1--11-| .. .. .. .. .. .. ..
|-----------------------------------------------------||-----------------------------------------------------||-----------------------------------------------------||-----------------------------------------------------| x3|-----------------------------------------------------||-2b-00-11--11-11--11-1--11-11--11-1--11-11--11-1--11-| .. .. .. .. .. .. .. ..
|------------------||------------------||------------------||----------------1-||----------------1-||-2b-00-11--11-1-1-| .. ..
bass part with lead behind it(not sure how to play it yet)
lead behind breakdown|---------------------------------------------------------------------||----------------------------------12--12/15\12-----------------------||---10/13\10--------------10--10h13--13--------13-10/13\10--10--10/13-||-10--------10-10/13\10-10--10----------------------------10--10------| x4|---------------------------------------------------------------------||---------------------------------------------------------------------|
|----------------------------||----------------------------||---------------7--3-4--8--4-||-5--1-2--6--2--x--x-x--x--x-| x2|-5--1-2--6--2--5--1-2--6--2-||-5--1-2--6--2---------------|
|--------------------------------------------------||--------------------------------------------------||---------------------4/7----------------------3/6-||-2-0-2~--0-2-0-2~--0-2/5--1-0-1~--0-1-0-1~--0-1/4-| x2|-2-0-2~--0-2-0-2~--0-2/5--1-0-1~--0-1-0-1~--0-1/4-||-2-0-2~--0-2-0-2~--0-2/5--1-0-1~--0-1-0-1~--0-1/4-| . . . . . . . .
tremalo|-----------------------------------------------------------------||-----------------------------------------------------------------||---------6-----------6---7---6-----------5-----------5---6---5---||-7-------------------------------6-------------------------------| x2|---4-5-7---4-7-4-5-7---5---5---5---3-4-6---3-6-3-4-5---4---4---4-||-----------------------------------------------------------------|
|-----------------------------------------------------------||-----------------------------------------------------------||---------------------4/7-------------------------------3/6-||-2-0-2~--0-2-0-2~--0-2/5--1-0-1-00-1-0-1~--0-1-0-1~--0-1/4-| x2|-2-0-2~--0-2-0-2~--0-2/5--1-0-1-00-1-0-1~--0-1-0-1~--0-1/4-||-2-0-2~--0-2-0-2~--0-2/5--1-0-1-00-1-0-1~--0-1-0-1~--0-1/4-| . . . . . .. . . . .
trm|---------------------------------||---------------------------------||-9\-----10\------9\--------------||-8\--11--9\--11--8\--11--9-8-----| x4|-7\--00--8\--00--7\--00-----10-9-||-----11------11------11----------| .. .. ..
|---------------------------------------------------------------------------||---------------------------------------------------------------------------||-14\12/14--10-14\12/14--10-14\12-15\14/15--10-7-10-710\7/10-7-10/12-9/5\9~-||---------------------------------------------------------------------------||-12\10/12---8-12\10/12---8-12\10-13\12/13---8\5/8--5-8\5/8--5-8/10--7\3/7~-||---------------------------------------------------------------------------|
tremalo|-----------------------------------------\----- \|----------------------------------------------- \|----------------------------------------- ----- \|----------------------------------------- ---- \|-12-12--12-12--12-13-13--8-8--8-8--8-7-7- --- \|---0---0--0---0--0--0-----0--0-0--0-0-0-- -- \
. . . . . . . . . . . . x2 /|--------------------------------------------| /|--------------------------------------------| /|--------------------------------------------||--------------------------------------------||-12-12--12-12--12-13-13--8-8--8-8--8h10-7-7-||---0---0--0---0--0--0-----0--0-0--0------0--| . . . . . . . . . . .
|---------------------------------------||---------------------------------------||---------------------------------------||---------------------------------------| x4|-00000000--00000000-0--00000--00000000-||-00000000--00000000-0--00000--00000000-| ........ ........ . ..... ........
|--------||--------||--------||-1~---\-||-1~---\-||-1~---\-|
slow breakdown|----------------------------||----------------------------||----------------------------||----------------------------| x2|-00000--00000-0--000--00000-||-00000--00000-0--000--00000-|
drum fill|-------------|------------||-------------|------------||------4~-----|------------||-1~---1~-----|------------||-1~---1~-----|------------||-1~---1~-----|------------|
|----------------------------------||----------------------------------||----------------------------------||----------------------------------||---2---1-------1-------1--2--2--2-||-1---1---0-1-2---0-1-2------1--1--|
|-------------------------------------------- \|---------------------------------------\---- \|-------------------------------------------- \|-------5~----4~----4~----4~--5---5---5- ---- \|-0-1-2-2~--0-1~--0-1~--0-1~--2-0-2-0-2- --- \|-0-1-2-2~--0-1~--0-1~--0-1~--2-0-2-0-2- -- \
. . . . . . . . x2 /|------------------------------------------ \|------------------------------------------ \|------------------------------------------ \|-------5~----4~----4~--------4--5---5---5- \|-0-1-2-2~--0-1~--0-1~--0-1-2-1--2-0-2-0-2- \|-0-1-2-2~--0-1~--0-1~--0-1-2-1--2-0-2-0-2- \ . . . . . . . . . .
|----------------------------------------------||----------------------------------------------||----------------------------------------------||----------------------------------------------||----------------------------------------------||-2b-00-11--11-1--11-11--11-1--11-11--11-1--11-| .. .. .. .. .. .. ..
|-----------------------------------------------------||-----------------------------------------------------||-----------------------------------------------------||-----------------------------------------------------| x3|-----------------------------------------------------||-2b-00-11--11-11--11-1--11-11--11-1--11-11--11-1--11-| .. .. .. .. .. .. .. ..
|----------||----------||----------||----------||----------||-2b-00-11-| ..
|-------------------------------------------- \|---------------------------------------\---- \|-------------------------------------------- \|-------5~----4~----4~----4~--5---5---5- ---- \|-0-1-2-2~--0-1~--0-1~--0-1~--2-0-2-0-2- --- \|-0-1-2-2~--0-1~--0-1~--0-1~--2-0-2-0-2- -- \
. . . . . . . . repeat as many as wanted /|------------------------------------------ \|------------------------------------------ \|------------------------------------------ \|-------5~----4~----4~--------4--5---5---5- \|-0-1-2-2~--0-1~--0-1~--0-1-2-1--2-0-2-0-2- \|-0-1-2-2~--0-1~--0-1~--0-1-2-1--2-0-2-0-2- \ . . . . . . . . . .
i'll have a vid on youtube of me playing it sooner or later. any questions or comments then hit up my myspace! www.myspace.com/unearth1215
Tap to rate this tab
 
# A B C D E F G H I J K L M N O P Q R S T U V W X Y Z