Whitechapel - Fairy Fay tab

-----------------------------------------------------------------------------
                          Fairy Fay, by Whitechapel
                      www.myspace.com/whitechapelmetal
                           seige of amida records
-----------------------------------------------------------------------------

they have three guitarists each playing different harmonies at times, I tabbed out the 
one. you should check them out at www.myspace.com/whitechapelmetal, they're brutal

Key
~  let ring
.  palm mute
ph pinch harmonic
h  hammer on
/  slide

Intro part 1

|------------------| |----------------||------------------| |----------------||------------------| x3 |----------------| last time|------------------| |----------------||-----------33-----| |-----------3ph--||-0011002200--4422-| |-0011002200-4b--|
Intro part 2
|-------------------||-------------------||-------------------||-------------------||-0-1-0-2-0-3ph-4-2-||-0-1-0-2-0-----4-2-| . . . . . . .
Intro part 3
|------------------||------------------||------------------||------------------||-----------33-----||-0011002200--4422-|
|---------------------||---------------------||---------------------||-1~---2~---4---------||-1~---2~---4---4ph---||-1~---2~---4---------|
Fast part
|-----------------------------------------||-----------------------------------------||-----------------------------------------| x3|-----------------------------------------||---55-------44-------55--------4h7---5h8-||-00--8855-00--7744-00--8855-4h7---5h8----|
Last time
|---------------------------------------------------------------||---------------------------------------------------------------||---------------------------------------------------------------||---------------------------------------------------------------||---55-------44-------55--------4h7---5h8---6h9-6ph-||-00--8855-00--7744-00--8855-4h7---5h8---6h9--------|
Breakdown #1
|-----------------------||-----------------------||-----------------------| x4|-----------------------||-4-444-4-3-0-000-------||-4-444-----0-000-7-6-3-| ... ...
Next
|---------------------||---------------------||---------------------| x4|---------------------||-0-00-4-44-1-11-3-33-||-0-00-4-44-1-11-3-33-| . .. . .. . .. . ..
|--------------------------||--------------------------||--------------------------| x4|---tremolo-pick-----------||--------------------------||-000000444444111111333333-|
Breakdown #2
|----------------||----------------||----------------| x1|----------------||-0-000-9\8---7~-||-0-000-9\8-0-8~-| . ... .
|-------------------------------------||-------------------------------------||-------------------------------------| 1st and 3rd time|---------------------------111---222-||-000-000-000-000-000-000------333----||-111-111-111-111-111-111-0-----------| ... ... ... ... ... ... .
|--------------------------------------||--------------------------------------||--------------------------------------| 2nd and 4th time|-------------------------222111-------||-000-000-000-000-000-000-------333333-||-111-111-111-111-111-111--------------| ... ... ... ... ... ...
|-----------------------||-----------------------||-----------------------| x4|-----------------------||-000-000---000-000-000-||-111-111---111-111-111-| ... ... ... ... ...
|--------------||--------------||--------------| x1|-222111-------||-------333333-||--------------|
Next
|-----------------------------------||-----------------------------------||-----------------------------------| x4|-----------------------------------||-0-1-0-4ph/3ph--1-4-2-1-4ph-3ph----||-0-1-0----------1-4-2-1--------4ph-| . . . . . . .
|-----------------------------------||-----------------------------------||-----------------------------------| x4|-----------------------------------||-0-1-0----------1-4-2-1------------||-0-1-0----------1-4-2-1------------| . . . . . . .
|----||----||----| x1|----||-0~-||-0~-|
|-----------------------------||-----------------------------||-----------------------------| x4|-----------------------------||-0---5--7--8---5---8--7--4---||-0-00-00-00-00-5-55-55-55-55-| .. .. .. .. .. .. .. ..
|-------------||-------------||-------------| x2|-------------||-0~-5~-1~-4~-||-0~-5~-1~-4~-|
|--------------------------------------------------||--------------------------------------------------||--------------------------------------------------| x2|--------------Tremolo-pick------------------------||--------------------------------------------------||-000000000000555555555555111111111111444444444444-|
|-----------------------------||-----------------------------||-----------------------------| x4|-----------------------------||-0---5--7--8---5---8--7--4---||-0-00-00-00-00-5-55-55-55-55-| .. .. .. .. .. .. .. ..
|----||----||----||----||-0~-||-0~-|
Last Breakdown
|-----------------||-----------------||-----------------| x4|-----------------||-0-1-0-2-0-1-4-2-||-0-1-0-2-0-1-4-2-| . . . . . . . .
End with this
|---||---||---| x1|---||-0-||-0-| .
I think this is about 90% accurate, its hard to pick up with 3 guitars harmonizing but should give you a pretty good idea, enjoy
Tap to rate this tab
 
# A B C D E F G H I J K L M N O P Q R S T U V W X Y Z