Whitesnake - Love Will Set You Free tab

#----------------------------------PLEASE NOTE---------------------------------#
#This file is the author's own work and represents their interpretation of the #
#song. You may only use this file for private study, scholarship, or research. #
#------------------------------------------------------------------------------##

                             LOVE WILL SET YOU FREE
                            As recorded by Whitesnake
                        (From the 2011 Album FOREVERMORE)

Transcribed by Axeman72

Gtr I (Eb Ab Db Gb Bb Eb) - 'Guitar 1'
Gtr II (Eb Ab Db Gb Bb Eb) - 'Guitar 2'
Gtr III (Eb Ab Db Gb Bb Eb) - 'Guitar 3'

Q=130 4/4 Gtr I PM--| PM--|||------------------------------|||o-----------------------------|||--------5-(5)-------5S7-5S=2--|||--------5-(5)-------5S7-5S=2--|||o-------3-(3)-------3S5-------|||--0-3-5-------0-3-5-----------|
|
| Gtr II| PM--| PM--| ~~~||------------------------------|||o-----------------------------|||--------5-(5)-------5S7-------|||--------5-(5)-------5S7-------|||o-------3-(3)-------3S5-------|||--0-3-5-------0-3-5-----8S[5]-|
1. 2. PM--| PM--| PM--| PM--||----------------------------||-----------------------------|||---------------------------o||-----------------------------|||-------5-(5)-------5S7-5S7--||-------5-(5)-------5S7-5S7-5-|||-------5-(5)-------5S7-5S7--||-------5-(5)-------5S7-5S7-5-|||-------3-(3)-------3S5-3S5-o||-------3-(3)-------3S5-3S5---|||-0-3-5-------0-3-5----------||-0-3-5-------0-3-5-----------||
|
| PM--| PM--| PM--| PM--||----------------------------||-----------------------------|||---------------------------o||-----------------------------|||-------5-(5)-------5S7-5S7--||-------5-(5)-------5S7-5S7---|||-------5-(5)-------5S7-5S7--||-------5-(5)-------5S7-5S7---|||-------3-(3)-------3S5-3S5-o||-------3-(3)-------3S5-3S5---|||-0-3-5-------0-3-5----------||-0-3-5-------0-3-5-----------||
PM--------| PM PM--------| ~~|--------------------------------|--------------------------------||--------------------------------|--------------------------------||-(5)--------------------------5-|-(5)---5/-----------------5S=7--||-(5)--------------------------5-|-(5)---5/-----------------5S=7--||--------------------3-0-5-3-0---|----------------------3-0-------||--------3-0-3-0-3-0-------------|----------3-0-3-0-3-0-----------|
|
|--8--8--8-8-----8-8-----8-8-----|--8--8----8-8-----8-8-----8S10--||--8--8--8-8-----8-8-----8-8-----|--8--8----8-8-----8-8-----8S10--||--9--9--9-9-----9-9-----9-9-----|--9--9----9-9-----9-9-----9S11--||--------------------------------|--------------------------------||--------------------------------|--------------------------------||--------------------------------|--------------------------------|
~ PM--------||------------------------------|-----------------------||------------------------------|-----------------------||-5----------------------------|--------------------5--||-5----------------------------|--------------------5--||------------------3-0-5-3-0---|-----------------------||------3-0-3-0-3-0-----------3-|-5-5--4-3-2-1-2-3-4----|
|
|-8-8--8-8-----8-8-----8-8-----|-----------------------||-8-8--8-8-----8-8-----8-8-----|-----------------------||-9-9--9-9-----9-9-----9-9-----|-2-2--1-0-------0-1----||------------------------------|----------4-3-4--------||------------------------------|-----------------------||------------------------------|-----------------------|
Verse 1 4/4 Gtrs I, II PM--------| PM PM--------| ~|------------------------------|----------------------------||------------------------------|----------------------------||-(5)------------------------5-|-(5)-5/-----------------5S7-||-(5)------------------------5-|-(5)-5/-----------------5S7-||------------------3-0-5-3-0---|--------------------3-0-----||------3-0-3-0-3-0-------------|--------3-0-3-0-3-0---------|
PM--------| PM--------| PM||----------------------------|-------------------------------||----------------------------|-------------------------------||-5------------------------5-|-(5)-5-------------------------||-5------------------------5-|-(5)-5-------------------------||----------------3-0-5-3-0---|-------------------3-0-5-3-0---||----3-0-3-0-3-0-------------|-------3-0-3-0-3-0-----------3-|
~ PM--------| PM PM| PM| PM||-1------------------------1-|-(1)-1-----------------------||-1------------------------1-|-(1)-1---------6-----6S8-----||----------------------------|---------------5-----5S7-----||----------------3-0-5-3-0---|-----------------------------||----3-0-3-0-3-0-------------|-------3-0-3S5---5-5-----5-5-||----------------------------|-----------------------------|
~ PM--------| PM||----------------------------|-------------------------||----------------------------|-------------------------||-5--------------------------|-------------------------||-5--------------------------|-------------------------||----------------3-0-5-3-0---|----------------5-3-0----||----3-0-3-0-3-0-----------3-|-5-5--4-3-2-1-2-------3--|
Gtr I ~~ ~~ ~|--8---------|-10----------------|----------------|-------------||-10---------|-12----------------|-13--12--10--8--|-5--3--1--0--||------------|-------------------|----------------|-------------||------------|-------------------|----------------|-------------||------------|-------------------|----------------|-------------||------------|-------------------|----------------|-------------|
|
| Gtr II| ~~ ~~ ~|--8---------|-10----------------|----------------|-------------||-10---------|-12----------------|----------------|-------------||------------|-------------------|-14--12---9--7--|-5--4--2--0--||------------|-------------------|----------------|-------------||------------|-------------------|----------------|-------------||------------|-------------------|----------------|-------------|
|
| Gtr III| PM| PM||------------|-------------------|----------------|-------------||------------|-------------------|----------------|-------------||------------|--7----7-----7-----|----------------|-------------||--3------2--|--7----7-----7-----|--7-------------|-5-----------||--3------2--|--5----5-5-5-5-----|--7-------------|-5-----------||--1------0--|---------------5-5-|--5-------------|-3-----------|
Chorus ~ ~~~~~~~ ~|-----------|---------------------|----------------|----------------||-----------|---------------------|-5------(5)-5-8-|-8b10--8--5--3--||-5------4--|-2----9---------(9)\-|----------------|----------------||-----------|---------------------|----------------|----------------||-----------|---------------------|----------------|----------------||-----------|---------------------|----------------|----------------|
|
| ~ ~~~~~~~ ~|-----------|---------------------|----------------|----------------||-----------|---------------------|-5------(5)-5-8-|-8b10--8--5--3--||-2------4--|-5----9---------(9)\-|----------------|----------------||-----------|---------------------|----------------|----------------||-----------|---------------------|----------------|----------------||-----------|---------------------|----------------|----------------|
|
| PM||-----------|---------------------|----------------|----------------||-----------|---------------------|----------------|----------------||-----------|-7--------7----------|----------------|----------------||-3------2--|-7--------7----------|-7--------------|-5--------------||-3------2--|-5----5-5-5----------|-7--------------|-5--------------||-1------0--|------------10\------|-5--------------|-3--------------|
~ ~|----------|--------------------------------------|----------|-----------------||-5--------|-8b10--8---(8)-10---8-----------------|-5--------|-8b10--8--5--8---||----------|----------------------9-------7-------|----------|-----------------||----------|--------------------------------------|----------|-----------------||----------|--------------------------------------|----------|-----------------||----------|--------------------------------------|----------|-----------------|
|
| ~ ~|----------|--------------------------------------|----------|-----------------||-5--------|-8b10--8---(8)-10---8-----------------|-5--------|-8b10--8--5--8---||----------|----------------------9-------7-------|----------|-----------------||----------|--------------------------------------|----------|-----------------||----------|--------------------------------------|----------|-----------------||----------|--------------------------------------|----------|-----------------|
|
| PM---------------||----------|--------------------------------------|----------|-----------------||----------|--------------------------------------|----------|-----------------||-7--------|--------------------------------------|----------|-----------------||-7--------|-7------------------------------------|-7--------|-5---------------||-5--------|-7------------------------3---5-3-----|-7--------|-5---------------||----------|-5-----3-0--3-----0---3-0---5-----5-3-|-5--------|-3---------------|
~~~~~|----------------------|--7-------------------||-10-------------------|-10b12----------------||----------------------|----------------------||----------------------|----------------------||----------------------|----------------------||----------------------|----------------------|
|
| ~~~~~|----------------------|--7-------------------||-10-------------------|-10b12----------------||----------------------|----------------------||----------------------|----------------------||----------------------|----------------------||----------------------|----------------------|
|
| PM| PM| PM||----------------------|----------------------||----------------------|----------------------||--7-------7-----7-----|--9---------9---------||--7-------7-----7-----|--9---------9---------||--5---5-5-5-5-5-5-7-7-|--7-----7-7-7---------||----------------------|--------------/12\----|
|-3------------3---------3----------||-6b8----------6b8-------6b8--------||-----------------------------------||-----------------------------------||-----------------------------------||-----------------------------------|
|
| PM----------| PM|-----------------------------------||-----------------------------------||-5/-----------------------------5--||-5/-----------------------------5--||--------------------3-0-5---3-0----||------3-0-3-0-3---0----------------|
|
| PM----------| PM|-----------------------------------||-----------------------------------||-5------------------------------5--||-5------------------------------5--||--------------------3-0-5---3-0----||------3-0-3-0-3---0----------------|
|--3---3---3-----3--------------------------||--6b8-6b8-6b8---6b8---5b7========(5)r==(5)-||-------------------------------------------||-------------------------------------------||-------------------------------------------||-------------------------------------------|
|
| PM---------------| ~~~~~~~|-------------------------------------------||-------------------------------------------||--5---5/--------------------------5S=7-----||--5---5/--------------------------5S=7-----||-----------------------------3-0-----------||----------3---0-3---0-3----0---------------|
|
| PM---------------| ~~~~~~~|-------------------------------------------||-------------------------------------------||-(5)--5/--------------------------5S=7-----||-(5)--5/--------------------------5S=7-----||-----------------------------3-0-----------||----------3---0-3---0-3----0---------------|
~~~~~~~~~~~~~~~~~~~~~|-3--------------15---------------(15)---|------------------------||-6b8----------x-------------------------|-10-10--9-8-7-6-7-8-----||------------x---------------------------|--------------------5---||----------x-----------------------------|--------------------5---||----------------------------------------|------------------------||----------------------------------------|------------------------|
|
|~~~~~ PM---------------||-3--------------------------------------|------------------------||----------------------------------------|------------------------||----------------------------------------|--------------------5---||----------------------------------------|--------------------5---||-------------------------3-0-5-3---0----|------------------------||------3-0--------3-0-3-0--------------3-|--5--5--4-3-2-1-2-3-----|
|
|~~~~~ PM---------------||----------------------------------------|------------------------||----------------------------------------|------------------------||-5--------------------------------------|--------------------5---||-5--------------------------------------|--------------------5---||-------------------------3-0-5-3---0----|------------------------||------3-0--------3-0-3-0--------------3-|--5--5--4-3-2-1-2-3-----|
Verse 2 4/4 Gtrs I, II PM--------| PM PM--------| ~|----------------------------|----------------------------||----------------------------|----------------------------||-5------------------------5-|-(5)-5/-----------------5S7-||-5------------------------5-|-(5)-5/-----------------5S7-||----------------3-0-5-3-0---|--------------------3-0-----||----3-0-3-0-3-0-------------|--------3-0-3-0-3-0---------|
Gtr I PM--------||----------------------------|-----------------------------------||----------------------------|-----------------------------------||-5------------------------5-|-(5)-5-------------5---7-5-7b9r(7)-||-5------------------------5-|-(5)-5-----5-6-7-----7-------------||----------------3-0-5-3-0---|-----------------------------------||----3-0-3-0-3-0-------------|-----------------------------------|
|
| Gtr II| PM--------| PM--------| PM--||----------------------------|-----------------------------------||----------------------------|-----------------------------------||-5------------------------5-|--5--5-----------------------------||-5------------------------5-|--5--5-----------------------------||----------------3-0-5-3-0---|-------------------3-0-5-3-0-------||----3-0-3-0-3-0-------------|-------3-0-3-0-3-0--------------3--|
~~~~~~~~~~|------------------------------------|-----------8S10S8-5---7-------||----------------------------------6-|-(6)-------8S10S8-5---8-------||-(7)------(7)b9---9---------------5-|-(5)--------------------------||--------------------7-----(7)-------|------------------------------||------------------------------------|------------------------------||------------------------------------|------------------------------|
|
| ~~~ PM------------| PM PM| PM| PM||--1-------------------------------1-|-(1)-1------------------------||--1-------------------------------1-|-(1)-1----------6-----6S8-----||------------------------------------|----------------5-----5S7-----||----------------------3-0--5--0-3---|------------------------------||------3-0--3----0-3-0---------------|-------3-0-3S=5---5-5-----5-5-||------------------------------------|------------------------------|
~|----------------------------|-------------------------||----------------------------|----------------3-1------||----------------------------|-2-2--1-0-----------2-0--||-7--------------------------|----------4-3-4----------||----------------------------|-------------------------||----------------------------|-------------------------|
|
| ~ PM--------| PM||----------------------------|-------------------------||----------------------------|-------------------------||-5--------------------------|-------------------------||-5--------------------------|-------------------------||----------------3-0-5-3-0---|----------------5-3-0----||----3-0-3-0-3-0-----------3-|-5-5--4-3-2-1-2-------3--|
Gtr I ~~ ~|--8----------/7--|-5----------------||-10----------/8--|-6----------------||-----------------|------------------||-----------------|------------------||-----------------|------------------||-----------------|------------------|
|
| Gtr II|-----------------|------------------||-----------------|------------------||-----------------|------------------||-----------------|------------------||-----------------|------------------||-----------------|------------------|
|
| Gtr III| PM| PM| PM||-----------------|------------------||-----------------|------------------||-----------------|-7----7-----7-----||--3----3------2--|-7----7-----7-----||--3----3------2--|-5----5-5-5-5-----||--1----1-1-1--0--|--------------5-5-|
~|----------------|---------------------------||-13--12--10--8--|-5--3-----1-------0--------||----------------|---------------------------||----------------|---------------------------||----------------|---------------------------||----------------|---------------------------|
|
| ~|----------------|---------------------------||----------------|---------------------------||-14--12---9--7--|-5--4-----2-------0--------||----------------|---------------------------||----------------|---------------------------||----------------|---------------------------|
|
| PM----------------||----------------|---------------------------||----------------|---------------------------||----------------|---------------------------||--7-------------|-5-------------------------||--7-------------|-5-------------------------||--5-------------|-3----3-3-5-5-3-3-1-1-0-0--|
Chorus ~ ~~~~~~~ ~|-----------|---------------------|----------------|----------------||-----------|---------------------|-5------(5)-5-8-|-8b10--8--5--3--||-5------4--|-2----9---------(9)\-|----------------|----------------||-----------|---------------------|----------------|----------------||-----------|---------------------|----------------|----------------||-----------|---------------------|----------------|----------------|
|
| ~ ~~~~~~~ ~|-----------|---------------------|----------------|----------------||-----------|---------------------|-5------(5)-5-8-|-8b10--8--5--3--||-2------4--|-2----9---------(9)\-|----------------|----------------||-----------|---------------------|----------------|----------------||-----------|---------------------|----------------|----------------||-----------|---------------------|----------------|----------------|
|
| PM||-----------|---------------------|----------------|----------------||-----------|---------------------|----------------|----------------||-----------|-7--------7----------|----------------|----------------||-3------2--|-7--------7----------|-7--------------|-5--------------||-3------2--|-5----5-5-5----------|-7--------------|-5--------------||-1------0--|------------10\------|-5--------------|-3--------------|
~ ~|----------|--------------------------------------|----------|-----------------||-5--------|-8b10--8---(8)-10---8-----------------|-5--------|-8b10--8--5--8---||----------|----------------------9-------7-------|----------|-----------------||----------|--------------------------------------|----------|-----------------||----------|--------------------------------------|----------|-----------------||----------|--------------------------------------|----------|-----------------|
|
| ~ ~|----------|--------------------------------------|----------|-----------------||-5--------|-8b10--8---(8)-10---8-----------------|-5--------|-8b10--8--5--8---||----------|----------------------9-------7-------|----------|-----------------||----------|--------------------------------------|----------|-----------------||----------|--------------------------------------|----------|-----------------||----------|--------------------------------------|----------|-----------------|
|
| PM---------------||----------|--------------------------------------|----------|-----------------||----------|--------------------------------------|----------|-----------------||-7--------|--------------------------------------|----------|-----------------||-7--------|-7------------------------------------|-7--------|-5---------------||-5--------|-7------------------------3---5-3-----|-7--------|-5---------------||----------|-5-----3-0--3-----0---3-0---5-----5-3-|-5--------|-3---------------|
~~~~~~~~~~~~~~~~~~~~~|----------------------|--7-------------------||-10-------------------|-10b12----------------||----------------------|----------------------||----------------------|----------------------||----------------------|----------------------||----------------------|----------------------|
|
| ~~~~~|----------------------|--7-------------------||-10-------------------|-10b12----------------||----------------------|----------------------||----------------------|----------------------||----------------------|----------------------||----------------------|----------------------|
|
| PM| PM| PM||----------------------|----------------------||----------------------|----------------------||--7-------7-----7-----|--9---------9---------||--7-------7-----7-----|--9---------9---------||--5---5-5-5-5-5-5-7-7-|--7-----7-7-7---------||----------------------|--------------/12\----|
~~~~~~~~ ~~~~~~~~~~|-15b17================(15)r----------|-------------------20b22-----20---||-------------------------------------|----------------------------------||-------------------------------------|----------------------------------||-------------------------------------|----------------------------------||-------------------------------------|----------------------------------||------------------------------x-\5---|-(5)------------------------------|
|
|-------------------------------------|----------------------------------||-------------------------------------|----------------------------------||-------------------------------------|----------------------------------||-------------------------------------|----------------------------------||-------------------------------------|----------------------------------||-------------------------------------|----------------------------------|
|
| PM------| PM--| PM---| PM--||-------------------------------------|----------------------------------||-------------------------------------|----------------------------------||------------5-(5)-----------5S7--5S2-|---------5-(5)-----------5S7--5S7-||------------5-(5)-----------5S7--5S2-|---------5-(5)-----------5S7--5S7-||------------3-(3)-----------3S5------|---------3-(3)-----------3S5--3S5-||--0-----3-5-------0-3---5------------|--0--3-5-------0-3--5-------------|
~~~~~~ ~~~|-15b17================(15)r----------|---------------------------------------||-------------------------------------|---------------------------------------||-------------------------------------|---------------------------------------||-------------------------------------|---------------------------------------||-------------------------------------|---------------------------------------||------------------------------x-\5---|-(5)-----------------------------------|
|
| /1\ /1\|-------------------------------------|-------------------24---(24)(24)-------||-------------------------------------|---------------------------------------||-------------------------------------|---------------------------------------||-------------------------------------|---------------------------------------||-------------------------------------|---------------------------------------||-------------------------------------|---------------------------------------|
|
| PM------| PM--| PM---| PM--||-------------------------------------|---------------------------------------||-------------------------------------|---------------------------------------||------------5-(5)-----------5S7--5S2-|---------5-(5)------------5S==7----5S7-||------------5-(5)-----------5S7--5S2-|---------5-(5)------------5S==7----5S7-||------------3-(3)-----------3S5------|---------3-(3)------------3S==5----3S5-||--0-----3-5-------0-3---5------------|--0--3-5-------0-3--5------------------|
|---------------------------------------||---------------------------------------||---------------------------------------||---------------------------------------||---------------------------------------||-(5)-----------------------------------|
|
| \1/| ~~~~~~~~~~~~~~~~~~~~~~~~~~~~~~|---------------------------------------||-[8]----8-8--8--8-8-8-8-8-8-8-8-8-8-8--||---------------------------------------||---------------------------------------||---------------------------------------||---------------------------------------|
|
| PM----| PM--||---------------------------------------||---------------------------------------||----------5-(5)---------5S7---5S2------||----------5-(5)---------5S7---5S2------||----------3-(3)---------3S5------------||--0---3-5---------0-3-5----------------|
|---------------------19-------15---(15)b17---||---------------------------------------------||---------------------------------------------||---------------------------------------------||---------------------------------------------||-(5)-----------------------------------------|
|
| ~~~~~~~~~~~~~~~~~~~~~~~~~~~~~~~~~~~~~~~~~~~~|---------------------------------------------||--8--8-8-8--8--8-8-8--8-8-8-8--8-8---8-----8-||---------------------------------------------||---------------------------------------------||---------------------------------------------||---------------------------------------------|
|
| PM---| PM--||---------------------------------------------||---------------------------------------------||---------5-(5)----------5S7----5S7-----------||---------5-(5)----------5S7----5S7-----------||---------3-(3)----------3S5----3S5-----------||--0--3-5---------0-3--5----------------------|
|-(15)-------------------(15)---------|-(15)----------------(15)----------/17b20==||-------------------------------------|-------------------------------------------||-------------------------------------|-------------------------------------------||-------------------------------------|-------------------------------------------||-------------------------------------|-------------------------------------------||-------------------------------------|----------------------------x-12\----------|
|
| \2|~~~~~~~~~~~~~~~~~~|-------------------------------------|-------------------------------------------||---8--8-8-8--8--8--------------------|-------------------------------------------||-------------------------<7>---------|-(<7>)-------------------------------------||-------------------------------------|-------------------------------------------||-------------------------------------|-------------------------------------------||------------------12\----------------|-------------------------------------------|
|
| PM---| PM---| PM----| PM--||-------------------------------------|-------------------------------------------||-------------------------------------|-------------------------------------------||----------5-(5)--------------5S7-5S2-|-----------5-(5)----------5S7--5S7---------||----------5-(5)--------------5S7-5S2-|-----------5-(5)----------5S7--5S7---------||----------3-(3)--------------3S5-----|-----------3-(3)----------3S5--3S5---------||---0--3-5----------0--3---5----------|---0---3-5-------0-3---5-------------------|
Solo Gtr I|-(17)r(17)-12-15-----------------------------------||-----------------15-15pb17r15-13----15----13-14-13-||---------------------------------14----14----------||---------------------------------------------------||---------------------------------------------------||---------------------------------------------------|
|
| Gtrs II, III| PM| PM| PM||---------------------------------------------------||---------------------------------------------------||---5------------------------5-----------5----------||---5------------------------5-----------5----------||------------------0--0------------0--0-------------||----------------------------------------------3--3-|
|----------------------------------------------------|-------------------------------------------||----------------------------------------------------|-------------------------------------------||-14-12----17----17-16----16----16S14----14b16r14\---|-----14b16==(14)r(14)-----12-14--------12S7||-------14----14-------12----12-------12-------------|---x------------------------------14-------||----------------------------------------------------|-x-----------------------------------------||----------------------------------------------------|-------------------------------------------|
|
| PM-| PM| PM---| PM|----------------------------------------------------|-------------------------------------------||----------------------------------------------------|----6--------------------6------------6----||--5-----------------------5-----------5-------------|----5--------------------5------------5---5||--5-----------------------5-----------5-------------|------------------------------------------5||-----------------------------------------------5--5-|--------------------5-5-------5----5----0--||----------------------------------------------------|-------------------------------------------|
~~~|----------------------------------15----||-------------------------------13----16-||--------9-(9)-----------(9)-14----------||-10---x---------------------------------||----x-----------------------------------||----------------------------------------|
|
| PM| PM| PM||----------------------------------------||----------------------------------------||--5---------------5------5--------------||--5---------------5------5--------------||--------------0-0---0-0------------0--0-||----------------------------------------|
|---------------------------15------15---------------------------------||-17-16-15-16p15-14-15b16==(15)r-13----15b16r(15)-------13-------------||-------------------------------------------------14p12----12-14h17p14-||----------------------------------------------------------------------||----------------------------------------------------------------------||----------------------------------------------------------------------|
|
~~~~~~~----------------------------------------|----------------------------------------|-12-------------------------------------|----14-12-14----------------------------|-------------15-14-12-(12)--(12)s2/-----|----------------------------------------|
| PM--| PM-| PM---||----------------------------------------------------------------------||----------------------------------------------------------------------||--5---------------------------------5-------------------5-------------||--5---------------------------------5-------------------5-------------||----------------------------0----0------------0---0-------------------||--------------------------------------------------------------3-----3-|
PM-|----------------------------------------|----------------------------------------|--5---------------------5-----5---------|--5---------------------5-----5---------|---------------------------------5--5---|----------------------------------------|
Gtr I|------------------------------------------------------------------------------------------||------------------------------------------------12-13-15-13-12----15-(15)-(15)-13------13-||-------------------------10-12-14-10-12-x-12-14----------------14-----------------14------||-------10-12-14-10-12-14------------------------------------------------------------------||-12-14------------------------------------------------------------------------------------||------------------------------------------------------------------------------------------|
|
| Gtr II| PM---| PM---| PM|------------------------------------------------------------------------------------------||--6----------------------------------------6-----------------------6----------------------||--5----------------------------------------5-----------------------5-----------------5----||-------------------------------------------------------------------------------------5----||--------------------------------5-----5----------------5-----5------------------0---------||------------------------------------------------------------------------------------------|
|
| Gtr III| PM---| PM---| PM|------------------------------------------------------------------------------------------||--6----------------------------------------6-----------------------6----------------------||--5----------------------------------------5-----------------------5-----------------5----||-------------------------------------------------------------------------------------5----||--------------------------------5-----5----------------5-----5------------------0---------||------------------------------------------------------------------------------------------|
~~~~~~~~~~~~~~~~|--------------------------------------------------------|-19b20--19-----17-----15------||-15b17-15b17r15b17-----15b17r(15)b17r(15)b17r(15)-13----|------------------------------||-----------------------------------------------------14-|------------------------------||--------------------------------------------------------|------------------------------||--------------------------------------------------------|------------------------------||--------------------------------------------------------|------------------------------|
|
| ~~~~~~~~~~~~~~~~|-15b17-15b17r15b17-----15b17r(15)b17r(15)b17r(15)-13----|------------------------------||-----------------------------------------------------15-|-20b22--20-----17-----15------||--------------------------------------------------------|------------------------------||--------------------------------------------------------|------------------------------||--------------------------------------------------------|------------------------------||--------------------------------------------------------|------------------------------|
|
| PM---| PM----| PM| PM| PM| PM||--------------------------------------------------------|------------------------------||--------------------------------------------------------|------------------------------||--5------------------5-------------------------5--------|--5-------------5------5------||--5------------------5-------------------------5--------|--5-------------5------5------||--------------0----0-----------0-------0-----------0--0-|-----------0-0----0-0---------||--------------------------------------------------------|-------------------------3-3--|
~~~~~~|----------------------------|-----------------------------------------||-17--15---------------------|-----------------------------------------||---------17tr19--16tr17-----|-14tr16--12tr14------9tr12-----7tr9------||----------------------------|-----------------------------------------||----------------------------|-----------------------------------------||----------------------------|-----------------------------------------|
|
| ~~~~~~|----------------------------|-----------------------------------------||-13--12--10tr12---8tr10-----|-----------------------------------------||----------------------------|--9tr12---7tr9---------------------------||----------------------------|--------------------10tr12-----9tr10-----||----------------------------|-----------------------------------------||----------------------------|-----------------------------------------|
|
| PM| PM| PM| PM|----------------------------|-----------------------------------------||----------------------------|--6------------------6---------6---------||--5-------5-------5---------|--5------------------5---------5-------5-||--5-------5-------5---------|---------------------------------------5-||------------------------5-5-|----------------5-5--------5-5-------0---||----------------------------|-----------------------------------------|
~~~~~|------------------------------||-------------------------10---||-7b9=========(7)rs2s===9------||------------------------------||------------------------------||------------------------------|
|
| ~~~~~|------------------------------||------------------------------||--------------------------9---||-9b10========(9)rs2s==10------||------------------------------||------------------------------|
|
| PM| PM| PM||------------------------------||------------------------------||-5------------5--------5------||-5------------5--------5------||---------0-0------0-0-----0-0-||------------------------------|
~~~~~|----------------------------------|--------------------------------------||-8b10========(8)-(8)r\-------10s==|=12---(12)b13====(12)r(12)------------||--------------------------/9------|---------------------------12--9---12-||----------------------------------|--------------------------------------||----------------------------------|--------------------------------------||----------------------------------|--------------------------------------|
|
| ~~~~~|----------------------------------|--------------------------------------||----------------------------------|--------------------------------------||-7b9=========(7)-(7)r\--------9s==|=12---(12)b14====(12)r(12)------------||-------------------------/10------|---------------------------14-10---14-||----------------------------------|--------------------------------------||----------------------------------|--------------------------------------|
|
| PM| PM---| PM| PM---||----------------------------------|--------------------------------------||----------------------------------|--------------------------------------||-5------------5------------5------|--5------------5--------5-------------||-5------------5------------5------|--5------------5--------5-------------||---------0-0------0----0----------|----------------------------5----5----||------------------------------3-3-|--------------------------------------|
|-----------------------------------||-15b17-------15b17-----15b17r13----||--------------------------------14-||-----------------------------------||-----------------------------------||-----------------------------------|
|
|-19b20-------19b20-----19b20r15----||--------------------------------17-||-----------------------------------||-----------------------------------||-----------------------------------||-----------------------------------|
|
| PM| PM| PM|-----------------------------------||--6-----------6---------6----------||--5-----------5---------5--------5-||---------------------------------5-||---------5-5-------5-5--------0----||-----------------------------------|
|------------------------------------------------||-15b17-15b17-15b17-----17b20========(17)r==(17)-||------------------------------------------------||------------------------------------------------||------------------------------------------------||------------------------------------------------|
|
|-19b20-19b20-19b20-----22b24========(22)r===20--||------------------------------------------------||------------------------------------------------||------------------------------------------------||------------------------------------------------||------------------------------------------------|
|
| PM---| PM| PM||------------------------------------------------||------------------------------------------------||--5------------------5------------5-------------||--5------------------5------------5-------------||--------------0----0----------0-0--------0---0--||------------------------------------------------|
Gtr I ~~ ~|--8----------/7--|-5----------------||-10----------/8--|-6----------------||-----------------|------------------||-----------------|------------------||-----------------|------------------||-----------------|------------------|
|
| Gtr II|-----------------|------------------||-----------------|------------------||-----------------|------------------||-----------------|------------------||-----------------|------------------||-----------------|------------------|
|
| Gtr III| PM| PM| PM||-----------------|------------------||-----------------|------------------||-----------------|-7----7-----7-----||--3----3------2--|-7----7-----7-----||--3----3------2--|-5----5-5-5-5-----||--1----1-1-1--0--|--------------5-5-|
~|-------------------------|---------------------------||-13--12-----10-----8-----|-5--3-----1-------0--------||-------------------------|---------------------------||-------------------------|---------------------------||-------------------------|---------------------------||-------------------------|---------------------------|
|
| ~|-------------------------|---------------------------||-------------------------|---------------------------||-14--12------9-----7-----|-5--4-----2-------0--------||-------------------------|---------------------------||-------------------------|---------------------------||-------------------------|---------------------------|
|
| PM| PM| PM| PM----------------||-------------------------|---------------------------||-------------------------|---------------------------||-------------------------|---------------------------||--7----------7-----7-----|-5-------------------------||--7----------7-----7-----|-5-------------------------||--5-----5-5--5-5-5-5-3-3-|-3----3-3-5-5-3-3-1-1-0-0--|
~|-5-------------7b8-----|-8-7-8-5--------------------||-----------------------|----------------------------||-----------------------|----------------------------||-----------------------|----------------------------||-----------------------|----------------------------||-----------------------|----------------------------|
|
| ~|-----------------------|----------------------------||-----------------------|----------------------------||-5-------------7b9-----|-5--------7-7-7-7--7--7-7-7-||-----------------------|----------------------------||-----------------------|----------------------------||-----------------------|----------------------------|
|
| PM||-----------------------|----------------------------||-----------------------|----------------------------||-----------------------|-7------------7-------------||-3-------3-----2-------|-7------------7-------------||-3-------3-----2-------|-5--------5-5-5-------------||-1---1-1-1-0-0-0---0-0-|------------------10\-------|
Chorus ~|----------------|----------------||-5------(5)-5-8-|-8b10--8--5--3--||----------------|----------------||----------------|----------------||----------------|----------------||----------------|----------------|
|
| ~|----------------|----------------||-5------(5)-5-8-|-8b10--8--5--3--||----------------|----------------||----------------|----------------||----------------|----------------||----------------|----------------|
|
|----------------|----------------||----------------|----------------||----------------|----------------||-7--------------|-5--------------||-7--------------|-5--------------||-5--------------|-3--------------|
~|----------|------------------------------------||-5--------|-8b10--8-(8)-10---8-----------------||----------|--------------------9-------7-------||----------|------------------------------------||----------|------------------------------------||----------|------------------------------------|
|
| ~|----------|------------------------------------||-5--------|-8b10--8-(8)-10---8-----------------||----------|--------------------9-------7-------||----------|------------------------------------||----------|------------------------------------||----------|------------------------------------|
|
| PM----------||----------|------------------------------------||----------|------------------------------------||-7--------|------------------------------------||-7--------|-7----------------------------------||-5--------|-7----------------------3---5-3-----||----------|-5--------3-----0---3-0---5-----5-3-|
~|---------------------|------------------||-5-------------------|-8b10--8--5--8----||---------------------|------------------||---------------------|------------------||---------------------|------------------||---------------------|------------------|
|
| ~|---------------------|------------------||-5-------------------|-8b10--8--5--8----||---------------------|------------------||---------------------|------------------||---------------------|------------------||---------------------|------------------|
|
| PM| PM| PM||---------------------|------------------||---------------------|------------------||---------------------|------------------||-7-------7-----7-----|-5----------------||-7-------7-----7-----|-5----------------||-5---5-5-5-5-5-5-3-3-|-3----------------|
~~|-----20b22-----20-----------|-------17------------------------||-10-------------------------|-20b22----20b22-(20)-------------||----------------------------|---------------------------------||----------------------------|---------------------------------||----------------------------|---------------------------------||----------------------------|---------------------------------|
|
| ~~~~~~~~~~~~~~~~~~~~~~~~~~~~~~~~|----------------------------|---------------------------------||-10-------------------------|-12------------------------------||----------------------------|---------------------------------||----------------------------|---------------------------------||----------------------------|---------------------------------||----------------------------|---------------------------------|
|
| PM| PM| PM||----------------------------|---------------------------------||----------------------------|---------------------------------||--7-------------7-----7-----|--9--------------------9---------||--7-------------7-----7-----|--9--------------------9---------||--5--------5-5--5-5-5-5-7-7-|--7---------------7--7-7---------||----------------------------|-------------------------/12\----|
Chorus ~|-----------------------|-----------------||-5-------------(5)-5-8-|-8b10--8--5--3---||-----------------------|-----------------||-----------------------|-----------------||-----------------------|-----------------||-----------------------|-----------------|
|
|~~~|-----------------------|-----------------||-5-------------(5)-5-8-|-8b10--8--5--3---||-----------------------|-----------------||-----------------------|-----------------||-----------------------|-----------------||-----------------------|-----------------|
|
| PM| PM| PM||-----------------------|-----------------||-----------------------|-----------------||-----------------------|-----------------||-7-------7------7------|-5---------------||-7-------7------7------|-5---------------||-5---5-5-5-5-5--5--3-3-|-3---------------|
~|---------------------|------------------------------------||-5-------------------|-8b10--8-(8)-10---8-----------------||---------------------|--------------------9-------7-------||---------------------|------------------------------------||---------------------|------------------------------------||---------------------|------------------------------------|
|
| ~|---------------------|------------------------------------||-5-------------------|-8b10--8-(8)-10---8-----------------||---------------------|--------------------9-------7-------||---------------------|------------------------------------||---------------------|------------------------------------||---------------------|------------------------------------|
|
| PM| PM| PM| PM----------||---------------------|------------------------------------||---------------------|------------------------------------||-7-------7-----7-----|------------------------------------||-7-------7-----7-----|-7----------------------------------||-5---5-5-5-5-5-5-----|-7----------------------3---5-3-----||-----------------5-5-|-5--------3-----0---3-0---5-----5-3-|
~|---------------------|------------------||-5-------------------|-8b10--8--5--8----||---------------------|------------------||---------------------|------------------||---------------------|------------------||---------------------|------------------|
|
| ~|---------------------|------------------||-5-------------------|-8b10--8--5--8----||---------------------|------------------||---------------------|------------------||---------------------|------------------||---------------------|------------------|
|
| PM| PM| PM||---------------------|------------------||---------------------|------------------||---------------------|------------------||-7-------7-----7-----|-5----------------||-7-------7-----7-----|-5----------------||-5---5-5-5-5-5-5-3-3-|-3----------------|
~~~~~|----------------------|--7--------------------------||-10-------------------|-10b12-----------------------||----------------------|-----------------------------||----------------------|-----------------------------||----------------------|-----------------------------||----------------------|-----------------------------|
|
| ~~~~~|----------------------|--7--------------------------||-10-------------------|-10b12-----------------------||----------------------|-----------------------------||----------------------|-----------------------------||----------------------|-----------------------------||----------------------|-----------------------------|
|
| PM| PM| PM||----------------------|-----------------------------||----------------------|-----------------------------||--7-------7-----7-----|--9----9-(9)-----9-9---------||--7-------7-----7-----|--9----9-(9)-----9-9---------||--5---5-5-5-5-5-5-----|--7----7-(7)-----7-7---------||------------------0-0-|-------------0-0-----/12\----|
/1__________________________________________________________________ ~~~~~~~~~~~~~~~~|-24-----------------------(24)-------|-(24)--------------------------||-------------------------------------|-------------------------------||-------------------------------------|-------------------------------||-------------------------------------|-------------------------------||-------------------------------------|-------------------------------||-------------------------------------|-------------------------------|
|
| PM------------| PM PM------------| ~|-------------------------------------|-------------------------------||-------------------------------------|-------------------------------||--5--------------------------------5-|--(5)---------------------5S7--||--5--------------------------------5-|--(5)---------------------5S7--||----------------------3-0---5--3-0---|----------------------3-0------||------3-0-3-0-3-0-3-0----------------|------3-0-3-0-3-0-3-0----------|
|
| PM------------| PM PM------------| ~|-------------------------------------|-------------------------------||-------------------------------------|-------------------------------||--5--------------------------------5-|--(5)---------------------5S7--||--5--------------------------------5-|--(5)---------------------5S7--||----------------------3-0---5--3-0---|----------------------3-0------||------3-0-3-0-3-0-3-0----------------|------3-0-3-0-3-0-3-0----------|
~~~|---------------------------------||---------------------------------||---------------7-5-7-5-[5]-------||---------------------------------||---------------------------------||---------------------------------|
|
| PM------------||---------------------------------||---------------------------------||-5-------------------------------||-5-------------------------------||-------------------3-0--5--3-0---||---3-0-3-0-3-0-3-0-------------3-|
|
| PM------------||---------------------------------||---------------------------------||-5-------------------------------||-5-------------------------------||-------------------3-0--5--3-0---||---3-0-3-0-3-0-3-0-------------3-|
\3____________/|-----------------------------|--------------*||-----------------------------|--------------*||-(5)-----------(5)-----------|--5-------5\--*||-----------------------------|--------------*||-----------------------------|--------------*||-----------------------------|--------------*|
|
|-----------------------------|--------------*||-----------------------------|--------------*||--2---2--1-0-----------0-1-5-|-(5)------5\--*||-------------4-----3-4-----5-|-(5)------5\--*||-----------------------------|--------------*||-----------------------------|--------------*|
|
|-----------------------------|--------------*||-----------------------------|--------------*||---------------------------5-|-(5)------5\--*||---------------------------5-|-(5)------5\--*||-----------------------------|--------------*||--5---5--4-3-2-----1-2-3-4---|--------------*|
Tablature Legend ---------------- h - hammer-on p - pull-off b - bend pb - pre-bend r - bend release (if no number after the r, then release immediately) /\ - slide into or out of (from/to "nowhere") s - legato slide S - shift slide - natural harmonic [n] - artificial harmonic n(n) - tapped harmonic ~ - vibrato tr - trill T - tap TP - trem. picking PM - palm muting \n/ - tremolo bar dip; n = amount to dip \n - tremolo bar down n/ - tremolo bar up /n\ - tremolo bar inverted dip = - hold bend; also acts as connecting device for hammers/pulls <> - volume swell (louder/softer) x - on rhythm slash represents muted slash o - on rhythm slash represents single note slash Misc Legend ----------- | - bar || - double bar ||o - repeat start o|| - repeat end *| - double bar (ending) : - bar (freetime) $ - Segno & - Coda Tempo markers - = BPM(8/16=s8/s16), where s8 = swing 8ths, s16 = swing 16ths *************************************************************************************** * Generated using Power Tab Editor by Brad Larsen - http://powertab.guitarnetwork.org * ***************************************************************************************
Tap to rate this tab
 
# A B C D E F G H I J K L M N O P Q R S T U V W X Y Z