Who - Bargain tab

                      
                       *Bargain (Pete Townshend)*
                                 The Who
                               Who's Next

Intro:(It might be good to use a Capo on the 1st fret, but here's the tab without a capoAcoustic: A#7sus4 A#7|-1--1-1-1--1-1-1--1-1-1--1---1--1-1-1--1-1-1--1-1-1--1-||-4--4-4-4--4-4-4--4-4-4--4---3--3-3-3--3-3-3--3-3-3--3-||-1--1-1-1--1-1-1--1-1-1--1---1--1-1-1--1-1-1--1-1-1--1-||-3--3-3-3--3-3-3--3-3-3--3---3--3-3-3--3-3-3--3-3-3--3-||-1--1-1-1--1-1-1--1-1-1--1---1--1-1-1--1-1-1--1-1-1--1-||-------------------------------------------------------|
|-1--1-1-1--1-1-1--1-1-1--1---1--1-1-1--1-1-1--1-1-1--1-||-4--4-4-4--4-4-4--4-4-4--4---3--3-3-3--3-3-3--3-3-3--3-||-1--1-1-1--1-1-1--1-1-1--1---1--1-1-1--1-1-1--1-1-1--1-||-3--3-3-3--3-3-3--3-3-3--3---3--3-3-3--3-3-3--3-3-3--3-||-1--1-1-1--1-1-1--1-1-1--1---1--1-1-1--1-1-1--1-1-1--1-||-------------------------------------------------------|
During strumming, the sythesizer does this:|-----------------------------------------------------||--------------------------------------------------11-||-5--5/12---10--8---10---7-----8--5--5/12---10--8-----||--------------------------------------------------8--||-3--3/10---8---6---8----5-----6--3--3/10---8---6-----||-----------------------------------------------------|
Electric during singing (The notes are synchronized with the song lyrics): 00:15 I'd gladly lose me to find you|-----------------------------------||-----------------------------------||----3------------------------------||----3--------------------------3-1-||----1--------------------------1-1-||-----------------------------------|
I'd gladly give up all I have|----------------------------------||----------------------------------||----3-----------------------------||----3-------------------------3-1-||----1-------------------------1-1-||----------------------------------|
To find you I'd suffer anything and be glad|-----------------------------------------||-----------------------------------------||---3----------------------6--6---------8-||---3----------------------6--6---------8-||---1----------------------4--4---------6-||-----------------------------------------|
I'd pay any price just to get you|--------------------------------------||--------------------------------------||----3---------------------------------||----3-----------------------------3-1-||----1-----------------------------1-1-||--------------------------------------|
I'd work all my life and I will|------------------------------------||------------------------------------||----3-------------------------------||----3---------------------------3-1-||----1---------------------------1-1-||------------------------------------|
To win you I'd stand naked, stoned and stabbed|---------------------------------------------------------------||---------------------------------------------4----6--7---6---4-||---3------------------------6--6-------3-----3----5--6---5---3-||---3------------------------6--6-------1---1----3----4---3---1-||---1------------------------4--4-------------------------------||---------------------------------------------------------------|
I'd call that a bargain, the best I ever had|----------------------------------------------------------------||----------------------------------------------------------------||---------------6------------8-----------------------------------||---------------4------------6-----------8-------------------888-||----------------------------------------6-------------------666-||----------------------------------------------------------------|
The best I ever had|-------------------------------------------------------||-----------------------------------2-------------------||-------------------------------1-3---3-2---------------||----------------1-3--1-3--1-3-------------1-3--1-3---1-||----------------1-1--1-1--1-1-------------1-1--1-1---1-||-------------------------------------------------------|
Here are how the next chords are done in the song (I don't know if the names are correct): D# D G# Fm F x x 4 1 1 4 3 4 1 1 3 2 5 1 2 1 0 6 3 3 x x 6 3 3 x x 4 1 1 D# D I sit looking 'round D# I look at my face in the mirror G# Fm I know I'm worth nothing without you D# D In life one and one don't make two D One and one make one F D# And I'm looking for that free ride to me F I'm looking for you
Electric:|-1-----------1-----------1-----------1---------||---4-----------4-----------3-----------3-------||-----1---1-------1---1-------1---1-------1---1-||-------3-----------3-----------3-----------3---||-----------------------------------------------||-----------------------------------------------|
|-1-----------1-----------1-----------1---------||---4-----------4-----------3-----------3-------||-----1---1-------1---1-------1---1-------1---1-||-------3-----------3-----------3-----------3---||-----------------------------------------------||-----------------------------------------------|
|-1-----------3-----------1-----------1---------||---4-----------4-----------3-----------3-------||-----1---1-------1---1-------1---1-------1---1-||-------3-----------3-----------3-----------3---||-----------------------------------------------||-----------------------------------------------|
|-1-----------1-----------1-----------1---------||---4-----------4-----------3-----------3-------||-----1---1-------1---1-------1---1-------1---1-||-------3-----------3-----------3-----------3---||-----------------------------------------------||-----------------------------------------------|
|-1-----------3-----------1--||---4-----------4---------3--||-----1---1-------1---1---1--||-------3-----------3-----3--||----------------------------||----------------------------|
Sythesizer:|-----------------------------------------------------||--------------------------------------------------11-||-5--5/12---10--8---10---7-----8--5--5/12---10--8-----||--------------------------------------------------8--||-3--3/10---8---6---8----5-----6--3--3/10---8---6-----||-----------------------------------------------------|
(Notes correspond to lyrics)I'd gladly lose me to find you|-----------------------------------||-----------------------------------||----3------------------------------||----3--------------------------3-1-||----1--------------------------1-1-||-----------------------------------|
I'd gladly give up all I got|---------------------------------||---------------------------------||----3----------------------------||----3------------------------3-1-||----1------------------------1-1-||---------------------------------|
To find, I'm gonna run and never stop|-------------------------------------||-------------------------------------||---3-----------------------6--6----8-||---3-----------------------6--6----8-||---1-----------------------4--4----6-||-------------------------------------|
I'd pay any price just to get you|--------------------------------------||--------------------------------------||----3---------------------------------||----3-----------------------------3-1-||----1-----------------------------1-1-||--------------------------------------|
Surrender my good life for bad|-----------------------------------||-----------------------------------||----3------------------------------||----3--------------------------3-1-||----1--------------------------1-1-||-----------------------------------|
To find you, I'm gonna drown an unsung man|----------------------------------------||----------------------------------------||---3---------------------------6--6---8-||---3---------------------------6--6---8-||---1---------------------------4--4---6-||----------------------------------------|
I'd call that a bargain, the best I ever had|----------------------------------------------------------------||----------------------------------------------------------------||---------------6------------8-----------------------------------||---------------4------------6-----------8-------------------888-||----------------------------------------6-------------------666-||----------------------------------------------------------------|
|----------------------||----------------------||----------------------||------------------888-||------------------666-||----------------------|
The best I ever had|-------------------------------------------------------||-----------------------------------2-------------------||-------------------------------1-3---3-2---------------||----------------1-3--1-3--1-3-------------1-3--1-3---1-||----------------1-1--1-1--1-1-------------1-1--1-1---1-||-------------------------------------------------------|
Acoustic: A#7sus4 A#7|-1--1-1-1--1-1-1--1-1-1--1---1--1-1-1--1-1-1--1-1-1--1-||-4--4-4-4--4-4-4--4-4-4--4---3--3-3-3--3-3-3--3-3-3--3-||-1--1-1-1--1-1-1--1-1-1--1---1--1-1-1--1-1-1--1-1-1--1-||-3--3-3-3--3-3-3--3-3-3--3---3--3-3-3--3-3-3--3-3-3--3-||-1--1-1-1--1-1-1--1-1-1--1---1--1-1-1--1-1-1--1-1-1--1-||-------------------------------------------------------|
|-1--1-1-1--1-1-1--1-1-1--1---1--1-1-1--1-1-1--1-1-1--1-||-4--4-4-4--4-4-4--4-4-4--4---3--3-3-3--3-3-3--3-3-3--3-||-1--1-1-1--1-1-1--1-1-1--1---1--1-1-1--1-1-1--1-1-1--1-||-3--3-3-3--3-3-3--3-3-3--3---3--3-3-3--3-3-3--3-3-3--3-||-1--1-1-1--1-1-1--1-1-1--1---1--1-1-1--1-1-1--1-1-1--1-||-------------------------------------------------------|
Strum faster when Keith Moon (The Greatest Drummer OfAll Time) comes in: A#7sus4 A#7|-1--1-1-1--1-1-1--1-1-1--1---1--1-1-1--1-1-1--1-1-1--1-||-4--4-4-4--4-4-4--4-4-4--4---3--3-3-3--3-3-3--3-3-3--3-||-1--1-1-1--1-1-1--1-1-1--1---1--1-1-1--1-1-1--1-1-1--1-||-3--3-3-3--3-3-3--3-3-3--3---3--3-3-3--3-3-3--3-3-3--3-||-1--1-1-1--1-1-1--1-1-1--1---1--1-1-1--1-1-1--1-1-1--1-||-------------------------------------------------------|
|-1--1-1-1--1-1-1--1-1-1--1---1--1-1-1--1-1-1--1-1-1--1-||-4--4-4-4--4-4-4--4-4-4--4---3--3-3-3--3-3-3--3-3-3--3-||-1--1-1-1--1-1-1--1-1-1--1---1--1-1-1--1-1-1--1-1-1--1-||-3--3-3-3--3-3-3--3-3-3--3---3--3-3-3--3-3-3--3-3-3--3-||-1--1-1-1--1-1-1--1-1-1--1---1--1-1-1--1-1-1--1-1-1--1-||-------------------------------------------------------|
|-1--1-1-1--1-1-1--1-1-1--1---1--1-1-1--1-1-1--1-1-1--1-||-4--4-4-4--4-4-4--4-4-4--4---3--3-3-3--3-3-3--3-3-3--3-||-1--1-1-1--1-1-1--1-1-1--1---1--1-1-1--1-1-1--1-1-1--1-||-3--3-3-3--3-3-3--3-3-3--3---3--3-3-3--3-3-3--3-3-3--3-||-1--1-1-1--1-1-1--1-1-1--1---1--1-1-1--1-1-1--1-1-1--1-||-------------------------------------------------------|
|-1--1-1-1--1-1-1--1-1-1--1---1--1-1-1--1-1-1--1-1-1--1-||-4--4-4-4--4-4-4--4-4-4--4---3--3-3-3--3-3-3--3-3-3--3-||-1--1-1-1--1-1-1--1-1-1--1---1--1-1-1--1-1-1--1-1-1--1-||-3--3-3-3--3-3-3--3-3-3--3---3--3-3-3--3-3-3--3-3-3--3-||-1--1-1-1--1-1-1--1-1-1--1---1--1-1-1--1-1-1--1-1-1--1-||-------------------------------------------------------|
Electric:|-----------6--------------6--------------6--------------6---||-----------6--------------6--------------6--------------6---||------------------------------------------------------------||------------------------------------------------------------||-6-8--6-8-------6-8--6-8-------6-8--6-8-------6-8--6-8------||-6-6--6-6-------6-6--6-6-------6-6--6-6-------6-6--6-6------|
|-----------6----6-6--6-6--6--------------6------------||-----------6----6-6--6-6--6--------------6------------||------------------------------------------------------||----------------------------------------------8-------||-6-8--6-8----------------------6-8--6-8-------8-------||-6-6--6-6----------------------6-6--6-6-------6-------|
Acoutic:|-1--1-1-1--1-1-1--1-1-1--1---1--1-1-1--1-1-1--1-1-1--1-||-4--4-4-4--4-4-4--4-4-4--4---3--3-3-3--3-3-3--3-3-3--3-||-1--1-1-1--1-1-1--1-1-1--1---1--1-1-1--1-1-1--1-1-1--1-||-3--3-3-3--3-3-3--3-3-3--3---3--3-3-3--3-3-3--3-3-3--3-||-1--1-1-1--1-1-1--1-1-1--1---1--1-1-1--1-1-1--1-1-1--1-||-------------------------------------------------------|
|-1--1-1-1--1-1-1--1-1-1--1---1--1-1-1--1-1-1--1-1-1--1-||-4--4-4-4--4-4-4--4-4-4--4---3--3-3-3--3-3-3--3-3-3--3-||-1--1-1-1--1-1-1--1-1-1--1---1--1-1-1--1-1-1--1-1-1--1-||-3--3-3-3--3-3-3--3-3-3--3---3--3-3-3--3-3-3--3-3-3--3-||-1--1-1-1--1-1-1--1-1-1--1---1--1-1-1--1-1-1--1-1-1--1-||-------------------------------------------------------|
|-1--1-1-1--1-1-1--1-1-1--1---1---||-4--4-4-4--4-4-4--4-4-4--4---3---||-1--1-1-1--1-1-1--1-1-1--1---1---||-3--3-3-3--3-3-3--3-3-3--3---3---||-1--1-1-1--1-1-1--1-1-1--1---1---||---------------------------------|
Tap to rate this tab
 
# A B C D E F G H I J K L M N O P Q R S T U V W X Y Z