Who – Amazing Journey tab

Amazing Journey by The Who
tuning is G,D,A,E

notes
 /  slide up
 \  slide down
 h  hammer-on
 p  pull-off
 ~  vibrato
 +  harmonic
 x  Mute note


|--5-----------------------5---------------------||----5---7-------------------5---7---------------||----------7---5----5--------------7---5---5-----||----------------5----5------------------5---5---|
|------------||------------||----7--5----||--5------5--|
|--5-----------------------5---------------------||----5---7-------------------5---7---------------||----------7---5----5--------------7---5---5-----||----------------5----5------------------5---5---|
|-------------------------------------||--5~----------------------5~---------||-----7~----------------------7~------||--------0/5-5-5--0/5-5-5--------5~---|
|--5-----------------------5-------------------5----------------------||----5---7-------------------5---7---------------5---7----------------||----------7---5-------------------7---5---5-----------7---5----5-----||----------------5-----------------------5---5---------------5----5---|
|--5-----------------------------------------------------------||----5---7-----------------------------------------------------||----------7---5----5---------8---8-7---7-6---6-5~-55555-5-5---||----------------5----5-----3----------------------------------|
|-----------------------------------------------3---5---7----||--5-5-555---------5-5-555----------5-5-555-------3---5---7--||----------5-5-555---------5-5-555----------5-5--------------||------------------------------------------------------------|
|--5----------------------------5----------------------5--------------------||----5---7------------------------5---7------------------5---7--------------||----------7---5----5-----5-------------7---5----5-------------7---5----5---||----------------5-----5----5-----------------5----5-----------------5----5-|
|-------------------------------------------------------------------||--5~----------------------5~---------------------------------------||-----7~----------------------7~---------------8---8-7---7-6---6-5--||--------0/5-5-5--0/5-5-5--------5~-55555555-5----------------------|
|-----------------------------------------------3---5---7----||--5-5-555---------5-5-555----------5-5-555-------3---5---7--||----------5-5-555---------5-5-555----------5-5--------------||------------------------------------------------------------|
|--5-------------------||----5--7--------------||---------7--5---5-----||--------------5---5---|
Please rate this tab:
x1.0