Winslow L Hayden - Spanish Students Waltz tab

Spanish Student's Waltz by Winslow L. Hayden

TablEdited by David M. Garrett

Very little is known about Winslow L. Hayden.  What
I do know about him I have gleaned from copies of his
musical scores that are on file at The Library of
Congress in Washington.  He lived and taught guitar
in Boston during the late 1800's.  He composed for
many instruments, but the majority of his work was
for solo guitar.  It is really sad that his work be
overlooked because his pieces are really melodic.
I hope you enjoy the few pieces that I have presented
here. 

Tuning: E A D G B E   -   Time Signature: 3/8

| | | | | | | | | | | | |--------2---|2-------2---|--------2---|3-------3---||------------|------------|3-----------|0-------0---||--------2---|2-------2---|2-------2---|------------||------------|----0-------|----0-------|----0-------||------------|------------|------------|------------||------------|------------|------------|------------|
| | | | | | | | | | | | |--------3---|2-------2---|--------2---|0-------0---||0-------0---|------------|3-----------|2-------2---||0-----------|2-------2---|2-------2---|2-------2---||----0-------|----0-------|----0-------|------------||------------|------------|------------|0-----------||------------|------------|------------|------------|
| | | | | | | | | | | | |0-------2---|2-------2---|--------2---|3-------3---||2-----------|------------|3-----------|0-------0---||2-------2---|2-------2---|2-------2---|----0-------||------------|----0-------|----0-------|------------||0-----------|------------|------------|------------||------------|------------|------------|------------|
| | | | | | | | | | | | |--------3---|2-------2---|0-----------|------------||0-------0---|------------|--------2---|3-------3---||0-----------|2-------2---|0-------0---|2-------2---||----0-------|----0-------|------------|0-------0---||------------|------------|----0-------|------------||------------|------------|------------|------------|
| | | | | | | | | | | | |------------|0-------0---|0-------0---|2-------2---||3-----------|2-------2---|2---3-------|3-------3---||2-----------|2-------2---|2-----------|2-------2---||0-----------|------------|------------|0-------0---||------------|0-----------|0-----------|------------||------------|------------|------------|------------|
| | | | | | | | | | | | |2---0---2---|3-------3---|5---3---2---|0-------0---||3-----------|2-------2---|------------|2-------2---||2-----------|2-------2---|------------|2-------2---||0-----------|------------|------------|------------||------------|0-------0---|0-----------|0-------0---||------------|------------|------------|------------|
| | | | | | | | | | | | |0-------2---|2-------2---|--------2---|3-------3---||2-----------|------------|3-----------|0-------0---||2-------2---|2-------2---|2-------2---|------------||------------|----0-------|----0-------|----0-------||0-----------|------------|------------|------------||------------|------------|------------|------------|
| | | | | | | | | | | | |--------3---|2-------2---|--------2---|0-------0---||0-------0---|------------|3-----------|2-------2---||0-----------|2-------2---|2-------2---|2-------2---||----0-------|----0-------|----0-------|------------||------------|------------|------------|0-------0---||------------|------------|------------|------------|
| | | | | | | | | | | | |0-------2---|2-------2---|--------2---|3-------3---||2-----------|------------|3-----------|0-------0---||2-------2---|2-------2---|2-------2---|------------||------------|----0-------|----0-------|----0-------||0-----------|------------|------------|------------||------------|------------|------------|------------|
CODA| | | | | | | | | | | | | |--------3---|2-------2---|0-----------|------------||0-------0---|------------|--------2---|3-------3---||0-----------|2-------2---|0-------0---|2-------2---||----0-------|----0-------|------------|0-------0---||------------|------------|----0-------|------------||------------|------------|------------|------------|
| | | | | | | | | | | | |--------5---|2-----------|--------7---|3-----------||3-----------|--------3---|3-----------|--------0---||2-----------|--------2---|2-----------|--------0---||0-----------|------------|0-----------|------------||------------|0-----------|------------|0-----------||------------|------------|------------|------------|
| | | | | | | | | | | | |--------5---|2-----------|------------|0-----------||0-----------|--------3---|3-------2p3-|2-----------||0-----------|--------2---|2-----------|2-----------||0-----------|------------|0-----------|------------||------------|0-----------|------------|0-------0---||------------|------------|------------|------------|
| | | | | | | | | | | | |--------5---|2-----------|--------10--|7-----------||------------|--------3---|3-----------|--------0---||------------|--------2---|2-----------|--------0---||------------|------------|0-----------|0-----------||0-----------|0-----------|------------|------------||------------|------------|------------|------------|
| | | | | | | | | | | | |--------7---|5-------2---|3-----------|------------||0-----------|--------3---|--------2---|3-----------||0-----------|--------2---|--------2---|2-----------||0-----------|------------|------------|0-----------||------------|0-----------|0-----------|--------0---||------------|------------|------------|------------|
| | | | | | | | | | | | |--------5---|2-----------|--------7---|3-----------||------------|--------3---|3-----------|--------0---||------------|--------2---|2-----------|--------0---||0-----------|0-----------|0-----------|0-----------||------------|------------|------------|------------||------------|------------|------------|------------|
| | | | | | | | | | | | |--------5---|2-----------|------------|0-----------||0-----------|--------3---|3-------2h3-|2-----------||0-----------|--------2---|2-----------|2-----------||0-----------|0-----------|0-----------|------------||------------|------------|------------|0-------0---||------------|------------|------------|------------|
| | | | | | | | | | | | |--------5---|2-----------|--------10--|7-----------||------------|--------3---|3-----------|--------0---||------------|--------2---|2-----------|--------0---||------------|0-----------|0-----------|0-----------||0-----------|------------|------------|------------||------------|------------|------------|------------|
| | | | | | | | | | | | |--------7---|5-------2---|3-----------|------------||0-----------|--------3---|--------2---|3-----------||0-----------|--------2---|--------2---|2-----------||0-----------|------------|------------|0-----------||------------|0-----------|0-----------|--------0---||------------|------------|------------|------------|
D C al CODA||CODA | | | | | | |------------||------------||------------||3-----------||------------||2-----------||0-----------||0-----------||------------||------------||------------||------------|
Created with TablEdit http://www.tabledit.com/
Tap to rate this tab
 
# A B C D E F G H I J K L M N O P Q R S T U V W X Y Z