Winter – Goden tab

Author/Artist: WINTER
Title: GODEN
Album: INTO DARKNESS
Transcribed by: KERNOUS
Email: KERNOUS@RELAPSECULT.COM

TUNE DOWN 3 AND 1/2 STEPS.LISTEN TO ALBUM FOR TIMING.SORRY,NO SOLO.
   riff1
-|--------------------------------------------------------------------------
---|--------------------------------------------------------------------------
---|--------------------------------------------------------------------------
---|-7--7--7--7-6--6--6--6-7--7--7--7-8-b----r----7--7--7--7-6--6--6--6-7--7--
7--|-7--7--7--7-6--6--6--6-7--7--7--7-8-b----r----7--7--7--7-6--6--6--6-7--7--
7--|-5--5--5--5-4--4--4--4-5--5--5--5-6-b----r----5--5--5--5-4--4--4--4-5--5--5- 1 step
---------------------------------------------------------------------------- -- ---------------------------------------------------------------------------- -- ---------------------------------------------------------------------------- -- -7-8-b----r------9--9--9--9-8--8--8--8-7--7--7--7-8-b----r------9--9--9--9-8
---7-8-b----r------7--7--7--7-6--6--6--6-5--5--5--5-6-b----r------7--7--7--7-6
---5-6-b----r------------------------------------------------------------------- 1 step 1 step
---------------------------------|---------------------------------|---------------------------------|-8--8--8-7--7--7--7-8-b----r-----|-6--6--6-5--5--5--5-6-b----r-----|---------------------------------|
1 step riff2-|---------------------------------------------|-|---------------------------------------------|-|---------------------------------------------|-|-7--7--7--7-6--6--6--6-5--5--5--5-6----3-----|-|-7--7--7--7-6--6--6--6-5--5--5--5-6----3-----|-|-5--5--5--5-4--4--4--4-3--3--3--3-4----1-----|
riff3 -|--------------------------------------------------------------------------
---|--------------------------------------------------------------------------
---|--------------------------------------------------------------------------
---|----------------------------------6b--------------------------------------
---|--------------------------------------------------------------------------
---|-4b--------------4b---------------4b---------------5b--------------5b-----
-- 1/4 step 1/4 step 6: 1 step 1/4 step 1/4step 4: 1/4 step-------------------------|-------------------------|-------------------------|--------7b---------------|-------------------------|--------5b---------------| 7: 1 step 5: 1/4 step
riff4-|------------------------------------------------------------|-|------------------------------------------------------------|-|------------------------------------------------------------|-|9--8--6--7--4--5--------2-2-2-2--2-2-2-2--2-2-2-2--2-2-2-2--|-|7--6--4--5--2--3--5--4--2-2-2-2--2-2-2-2--2-2-2-2--2-2-2-2--|-|------------------3--2--0-0-0-0--0-0-0-0--0-0-0-0--0-0-0-0--|
riff5-|-------------------------------------|-|-------------------------------------|-|-------------------------------------|-|-3-3-3-3--3-3-3-3--3-3-3-3--3-3-3-3--|-|-3-3-3-3--3-3-3-3--3-3-3-3--3-3-3-3--|-|-1-1-1-1--1-1-1-1--1-1-1-1--1-1-1-1--|
riff6 -|--------------------------------------------------------------------------
---|--------------------------------------------------------------------------
---|--------------------------------------------------------------------------
---|-7--7--7--7-6--6--6--6-7--7--7--7-8-b----r----7--7--7--7-6--6--6--6-7--7--
7--|-7--7--7--7-6--6--6--6-7--7--7--7-8-b----r----7--7--7--7-6--6--6--6-7--7--
7--|-5--5--5--5-4--4--4--4-5--5--5--5-6-b----r----5--5--5--5-4--4--4--4-5--5--5- 1 step
----------------------------------------------------------------------------------------------------------------------------------7-8-b----r---------------------------------7-8-b----r----7--\--6--\--5--\--4--\--3----5-6-b----r----5--\--4--\--3--\--2--\--1--- 1 step only strike first note
SONG STRUCTURE riff1 x2 riff2 x2 riff1 x2 riff2 x2 riff3 x2 riff4 x2 riff5 x2 riff4 x2 riff5 x2 riff1 x2 first time with solo riff6 x1
Please rate this tab:
x1.0