With Passion – Vengeance In Departure tab

WITH PASSION

VENGEANCE IN DEPARTURE

C-G-C-F-A-D


TABBED BY andherembrace



B-------------------------------------------------------------------------|-------------------------------------------------------------------------|-----------------------------------------------------^-------------------|----^-----^-----^-------^-----^-----^------------^--578-----------^---/\-|---8-5---7-4---875-----8-5---7-4---754-----5----578---------8----875-75\4|000----0-----0-----000-----0-----0-----888---88---------555---55---------|*** * * *** * * *** ** *** **
-------------------------------------------------------------------------|-------------------------------------------------------------------------|-----------------------------------------------------^-------------------|----^-----^-----^-------^-----^-----^------------^--578-----------^--PH--|---8-5---7-4---875-----8-5---7-4---754-----5----578---------8----875-7~--|000----0-----0-----000-----0-----0-----888---88---------555---55---------|*** * * *** * * *** ** *** **
L--------------------------------------------------------------------|------------------_-------------------__----------------------------|-----------_-----/ \----------__-----/ \-----__----------^---10-9--|----------/ \---7-8-10-------/ \--12-10-8---/ \---11--11-12-------|----8----7-8-10------------12-10-8---------12-10-8------------------|777---77---------------888------------------------------------------|
** ** *** R--------------------------------------------------------------------|------------------_-------------------__----------------------------|-----------_-----/ \----------__-----/ \-----__--------------------|----------/ \---7-8-10-------/ \--12-10-8---/ \-------------------|----8----7-8-10------------12-10-8---------12-10-8---7---7/8--12-10-|777---77---------------888------------------------------------------|** ** ***
0:13
L---------------------------------------------------------------|---------------------------------------------------------------|---------------------------------------------------------------|-----^-----^-----^-------^-----^-----^-------^-----^-----^-----|----8-5---7-4---875-----8-5---7-4---875-----8-5---7-4---875----|000-----0-----0-----000-----0-----0-----000-----0-----0--------|
*** * * ** * * *** * *R---------------------------------------------------------------|---------------------------------------------------------------|---------------------------------------------------------------|---------------------------------------------------------------|---------------------------------------------------------------|000-------------0---------------------------000----------------|*** * ***
L---------------------------------------------------------|---------_-----_------------------_-------__-------------|---_----/ \---/ \----_-----_-----/ \-----/ \-----__-----|--/ \--4-5-7-8-7-5--/ \---/ \---7-8-10-12-10-8---/ \----|-4-5-7-------------8-7-5-7-8-10----------------12-10-8---|---------------------------------------------------------|
R-------------------------------------------------------------------|----------_-------__-----------------------__-------__-------------|---_-----/ \-----/ \-----__------__------/ \-----/ \------__----|--/ \---7-8-10-12-10-8---/ \----/ \---10-12-13-15-13-12---/ \---|-7-8-10----------------12-10-8-10-12-13-------------------15-13-12-|-------------------------------------------------------------------|
0:19
L--------------------------------------------------------------------------|--------------------------------------------------------------------------|----------------------------------------------------/\--------------------|-----^----^----/\-------^-----^-----^----------/\--81012---------/\----/\-|---12-8-10-7-12108----12-8--10-7--1087---12---81012--------12--12108-108\7|000----0----0------000----0-----0-----888--88-----------888--88-----------|
*** * * *** * * *** ** *** ** R-------------------------------------------------------------------------|-------------------------------------------------------------------------|-----------------------------------------------------^-------------------|----^-----^-----^-------^-----^-----^------------^--578-----------^---/\-|---8-5---7-4---875-----8-5---7-4---754-----5----578---------8----875-75\4|000----0-----0-----000-----0-----0-----888---88---------555---55---------|*** * * *** * * *** ** *** **
L-------------------------------------------------------------------------|-------------------------------------------------------------------------|----------------------------------------------------/\-------------------|-----^----^----/\-------^-----^-----^----------/\--81012---------/\--PH--|---12-8-10-7-12108----12-8--10-7--1087---12---81012--------12--12108-10~-|000----0----0------000----0-----0-----888--88-----------888--88----------|
*** * * *** * * *** ** *** ** R-------------------------------------------------------------------------|-------------------------------------------------------------------------|-----------------------------------------------------^-------------------|----^-----^-----^-------^-----^-----^------------^--578-----------^--PH--|---8-5---7-4---875-----8-5---7-4---754-----5----578---------8----875-7~--|000----0-----0-----000-----0-----0-----888---88---------555---55---------|*** * * *** * * *** ** *** **
L--------------------------------------------------------------------|------------------_-------------------__----------------------------|-----------_-----/ \----------__-----/ \-----__----------^---10-9--|----------/ \---7-8-10-------/ \--12-10-8---/ \---11--11-12-------|----8----7-8-10------------12-10-8---------12-10-8------------------|777---77---------------888------------------------------------------|
** ** *** R--------------------------------------------------------------------|------------------_-------------------__----------------------------|-----------_-----/ \----------__-----/ \-----__--------------------|----------/ \---7-8-10-------/ \--12-10-8---/ \-------------------|----8----7-8-10------------12-10-8---------12-10-8---7---7/8--12-10-|777---77---------------888------------------------------------------|** ** ***
0:33
L ^-----------------------------------^---030-----------------------------|----------------^-----^-----^-----252-2---2----5-----8------14------17-|---------------363-3-363-3-030-------3-----3/6---6/9---9/12---12/15----|------------------5-----5-----2-5--------------------------------------|0----000--0-0----------------------------------------------------------|0----000--0-0|---------------------------------------------------------|
* *** * *R-----------------------------------------------------------------------|----------------------------^------^-----^-----------------------------|----------------^-----^----252--2-363-6-030----------------------------|---------------585-5-585-5----4------5-----2-----5----8-----14-----17--|0----000--0-0|----7-----7-------------------4-4/7-7/10-10/13--13/16----|0----000--0-0|---------------------------------------------------------|* *** * *
L ^-----------------------------------^---030-----------------------------|----------------^-----^-----^-----252-2---2----5-----8------14------17-|---------------363-3-363-3-030-------3-----3/6---6/9---9/12---12/15----|------------------5-----5-----2-5--------------------------------------|0----000--0-0----------------------------------------------------------|0----000--0-0|---------------------------------------------------------|
* *** * *R-----------------------------------------------------------------------|----------------------------^------^-----^-----------------------------|----------------^-----^----252--2-363-6-030----------------------------|---------------585-5-585-5----4------5-----2-----5----8-----14-----17--|0----000--0-0|----7-----7-------------------4-4/7-7/10-10/13--13/16----|0----000--0-0|---------------------------------------------------------|* *** * *
0:48
L-------------------------------------------------------------------------|-------------------------------------------------------------------------|---------------------------_-----_------------------------------_-----_--|--------------------------/ \---/ \----------------------------/ \---/ \-|5---6---5---6---5---6----3-5-6-3-5-6-5---6---5---6---5---6----3-5-6-3-5-6|-6-3-6-3-6-3-6-3-6-3-6-3--------------6-3-6-3-6-3-6-3-6-3-6-3------------|
* * * * * * * * * * * * * * * * * * * * * * * *R-------------------------------------------------------------------------|---------------------------_-----_------------------------------_-----_--|--------------------------/ \---/ \----------------------------/ \---/ \-|5---6---5---6---5---6----3-5-6-3-5-6-5---6---5---6---5---6----3-5-6-3-5-6|-------------------------------------------------------------------------|-6-3-6-3-6-3-6-3-6-3-6-3--------------6-3-6-3-6-3-6-3-6-3-6-3------------| * * * * * * * * * * * * * * * * * * * * * * * *
L------------------------------------------------------------|------------------------------------------------------------|-------------------_-----_------------------------------_---|------------------/ \---/ \----------------------------/ \--|5---6---5---6----3-5-6-3-5-6-5---6---5---6---5---6----3-5-6-|-6-3-6-3-6-3-6-3--------------6-3-6-3-6-3-6-3-6-3-6-3-------|
* * * * * * * * * * * * * * * * * * * *R------------------------------------------------------------|-------------------_-----_------------------------------_---|------------------/ \---/ \----------------------------/ \--|5---6---5---6----3-5-6-3-5-6-5---6---5---6---5---6----3-5-6-|------------------------------------------------------------|-6-3-6-3-6-3-6-3--------------6-3-6-3-6-3-6-3-6-3-6-3-------| * * * * * * * * * * * * * * * * * * * *
L-------------------------------------------------------------|-------------------------------------------------------------|-------------------_-----_------------------------------_----|------------------/ \---/ \----------------------------/ \---|5---6---5---6----3-5-6-3-5-6-5---6---5---6---5---6----3-5-6--|-6-3-6-3-6-3-6-3--------------6-3-6-3-6-3-6-3-6-3-6-3--------|
* * * * * * * * * * * * * * * * * * * *R-------------------------------------------------------------|-------------------_-----_------------------------------_----|------------------/ \---/ \----------------------------/ \---|5---6---5---6----3-5-6-3-5-6-5---6---5---6---5---6----3-5-6--|-------------------------------------------------------------|-6-3-6-3-6-3-6-3--------------6-3-6-3-6-3-6-3-6-3-6-3--------| * * * * * * * * * * * * * * * * * * * *
L-----------------------------------------------------------------|-----------------------------------------------------------------|P-----P------P---------_-----_---P----P------P---------_-----_---|H)----H)-----H)-------/ \---/ \--H)---H)-----H)-------/ \---/ \--|5--5--5--5---5--5----3-5-6-3-5-6-5-5--5--5---5--5----3-5-6-3-5-6-|----6-----6-3----6-3----------------6-----6-3----6-3-------------|
* * * * * * * * * *R------------------------------------------------------------------|P-----P------P---------_-----_---P-----P------P---------_-----_---|H)----H)-----H)-------/ \---/ \--H)----H)-----H)-------/ \---/ \--|5-----5------5-------3-5-6-3-5-6-5-----5------5-------3-5-6-3-5-6-|--5------5------5-------------------5-----5------5----------------|---6-3----6-3----6-3-----------------6-----6-3----6-3-------------| * * * * * * * * * * *
L-----------------------------------------------------------------|-----------------------------------------------------------------|P-----P------P---------_-----_---P----P------P---------_-----_---|H)----H)-----H)-------/ \---/ \--H)---H)-----H)-------/ \---/ \--|5--5--5--5---5--5----3-5-6-3-5-6-5-5--5--5---5--5----3-5-6-3-5-6-|----6-----6-3----6-3----------------6-----6-3----6-3-------------|
* * * * * * * * * *R-----------------------------------------------------------------|P-----P------P---------_-----_---P----P------P---------_-----_---|H)----H)-----H)-------/ \---/ \--H)---H)-----H)-------/ \---/ \--|5-----5------5-------3-5-6-3-5-6-5----5------5-------3-5-6-3-5-6-|---5-----5------5------------------5-----5------5----------------|----6-----6-3----6-3----------------6-----6-3----6-3-------------| * * * * * * * * * *
L---------------------------------------------------------------|---------------------------------------------------------------|---------------------------_-----_-----------------------------|--------------------------/ \---/ \----------------------------|5---6---5---6---5---6----3-5-6-3-5-6-5---6---5---6---5---6-----|-6-3-6-3-6-3-6-3-6-3-6-3--------------6-3-6-3-6-3-6-3-6-3-6-3--|
* * * * * * * * * * * * * * * * * * * * * * * *R---------------------------------------------------------------|---------------------------_-----_-----------------------------|--------------------------/ \---/ \----------------------------|5---6---5---6---5---6----3-5-6-3-5-6-5---6---5---6---5---6-----|---------------------------------------------------------------|-6-3-6-3-6-3-6-3-6-3-6-3--------------6-3-6-3-6-3-6-3-6-3-6-3--| * * * * * * * * * * * * * * * * * * * * * * * *
1;17
B-------------------------------------------------------|-------------------------------------------------------|-------------------------------------------------------|-------------------------------------------------------|-0-1-0-1-4-3-1-0-----------------------0-1-0-1-4-3-1-0-|-0-1-0-1-4-3-1-0-----------------------0-1-0-1-4-3-1-0-| * * * * * * * * * * * * * * * *
L--------------------------------------------------|--------------------__-----__---------------------|-------------------/ \---/ \----__-----__-------|------------------585858-252525--/ \---/ \------|-0-1-0-1-4-3-1-0----------------474747-141414-----|-0-1-0-1-4-3-1-0----------------------------------|
* * * * * * * *R ^ ^ ^ ^ ------------------3-0----6-3---9-6----12-9--------|----------------------2/5---5/8---8/11-----11/14--|--------------------------------------------------|--------------------------------------------------|-0-1-0-1-4-3-1-0----------------------------------|-0-1-0-1-4-3-1-0----------------------------------| * * * * * * * *
B-------------------------------------------------------|-------------------------------------------------------|-------------------------------------------------------|-------------------------------------------------------|-0-1-0-1-4-3-1-0-----------------------0-1-0-1-4-3-1-0-|-0-1-0-1-4-3-1-0-----------------------0-1-0-1-4-3-1-0-| * * * * * * * * * * * * * * * *
L-------------------------------------|--------_-----------_----------------|-------/ \----_----/ \-----_---------|-4----0-5-8--/ \--0-8-12--/ \--------|-4----------0-5-8--------0-8-12-11~--|-3-|---------------------------------|
----------------------_--------------|--------_------------/ \-----_-------|-------/ \-----_----0-7-10--/ \------|-4----0-8-12--/ \----------0-7-10-9~-|-4-----------0-8-12------------------|-3-|---------------------------------|
1:38
B-----------------------P--------------------------P---|-----------------------H)-------------------------H)--|-----------------------2--------------------------2---|------------------------------------------------------|-0--1--0--1--4--3--1-0------0--1--0--1--4--3--1-0-----|-0|-1|-0|-1|-4|-3|-1-0------0|-1|-0|-1|-4|-3|-1-0-----| * * * * * * * * * * * * * * * *
-----------------------P----------------------------|-----------------------H)---------------------------|-----------------------2----------------------------|----------------------------------------------------|-0--1--0--1--4--3--1-0------0--1--0--1--3-2--2-1----|-0|-1|-0|-1|-4|-3|-1-0------0|-1|-0|-1|-4-3|-3-2|---| * * * * * * * * * * * * * * * *
1:49
------------------------------------------------------------------|------------------------------------------------------------------|---_-------_-------_-------_-------_-------_-------_-------_------|--/ \-----/ \-----/ \-----/ \-----/ \-----/ \--2--/ \-----/ \--2/-|-5-8-5---5-8-5---5-8-5---5-8-5---1-4-1---1-4-1---1-4-1---1-4-1----|-------7-------6-------7-------6-------3---------------3----------|
------------------------------------------------------------------|------------------------------------------------------------------|---_-------_-------_-------_-------_-------_-------_-------_------|--/ \-----/ \-----/ \-----/ \-----/ \-----/ \--2--/ \-----/ \--2/-|-5-8-5---5-8-5---5-8-5---5-8-5---1-4-1---1-4-1---1-4-1---1-4-1----|-------7-------6-------7-------6-------3---------------3----------|
1:57
L-----------------------------------------------------------|-----------------------------------------------------------|---____----------____----------____--------_---------------|--/ \--------/ \--------/ \------/ \--2-----------|-85858585------85858585------41414141----0-1-4---4-1-0-----|----------7-------------6-------------3----------------2---|
R---------------------------------------------------------------|---------------------------------------------------------------|---_______-----------_______---------____--------_-------------|--/ \--10-----/ \--9----/ \--6---/ \--7---------|118118118118------118118118118-----85858585----0-5-8---8-5-0-7-|---------------------------------------------------------------|
L-----------------------------------------------------------|-----------------------------------------------------------|---____----------____----------____--------_---------------|--/ \--------/ \--------/ \------/ \--2-----------|-85858585------85858585------41414141----0-1-4---4-1-0---0-|----------7-------------6-------------3----------------2-0||
*R----------------------------------------------------------------|----------------------------------------------------------------|---_______-----------_______---------____--------_--------------|--/ \--10-----/ \--9----/ \--6---/ \--7----------|118118118118------118118118118-----85858585----0-5-8---8-5-0-7-0|---------------------------------------------------------------0|
*L----------------------|----------------------|----------------------|-8--5--7---------7-8--|----------------------|----------------------|
R-----------------------|-----------------------|-----------------------|-----------------------|-5--1--3---------3-5---|-5--1--3---------3-5---|
2:11
1 ------------------------------------------------|---------18------16-------15-13\11-13-11-10-11--|12-14-15---14-15----14-15-----------------------|------------------------------------------------|------------------------------------------------|------------------------------------------------|
2-5--5--------------------------------------------|-6--6--6--6--6--6--6--6--6--6--6--6--6--6--6--6--|-7--7--7--7--7--7--7--7--7--7--7--7--7--7--7--7--|-8--8--8--8--8--8--8--8--8--8--8--8--8--8--8--8--|-5--5--5--5--5--5--5--5--5--5--5--5--5--5--5--5--|-5--5--5--5--5--5--5--5--5--5--5--5--5--5--5--5--|
1 /\ /\ /\ /\---101110-----101310-------111411-----111511------|--11----11---11----12-----12----12---13----13-----|-12------12-12------13---13------13-14------14----|----------12---------15-----------15---------15---|--------------------------------------------------|--------------------------------------------------|
2--------------------------------------------------|-3--3--3--3--3--3--3--3--4--4--4--4--4--4--4--4---|-3--3--3--3--3--3--3--3--5--5--5--5--5--5--5--5---|-1--1--1--1--1--1--1--1--3--3--3--3--3--3--3--3---|-1--1--1--1--1--1--1--1--3--3--3--3--3--3--3--3---|-1--1--1--1--1--1--1--1--3--3--3--3--3--3--3--3---|
1 ------------------------------------------------|---------18------16-------15-13\11-13-11-10-11--|12-14-15---14-15----14-15-----------------------|------------------------------------------------|------------------------------------------------|------------------------------------------------|
2-5--5--------------------------------------------|-6--6--6--6--6--6--6--6--6--6--6--6--6--6--6--6--|-7--7--7--7--7--7--7--7--7--7--7--7--7--7--7--7--|-8--8--8--8--8--8--8--8--8--8--8--8--8--8--8--8--|-5--5--5--5--5--5--5--5--5--5--5--5--5--5--5--5--|-5--5--5--5--5--5--5--5--5--5--5--5--5--5--5--5--|
1-------------------------------------------------|-15\13-13-13-13/15-15-15-15\13-13-13-13/15-15-15-|-------------------------------------------------|-------------------------------------------------|-------------------------------------------------|-------------------------------------------------|
2-------------------------------------------------|11-10-10-10-10-11-11-11-11-10-10-10-10-11-11-11--|10-10-10-10-10-10-10-10-10-10-10-10-10-10-10-10--|-8--8--8--8--8--8--8--8--8--8--8--8--8--8--8--8--|-8--8--8--8--8--8--8--8--8--8--8--8--8--8--8--8--|-8--8--8--8--8--8--8--8--8--8--8--8--8--8--8--8--|
2:20
1 ------------------------------------------------|---------18------16-------15-13\11-13-11-10-11--|12-14-15---14-15----14-15-----------------------|------------------------------------------------|------------------------------------------------|------------------------------------------------|
2-------5--5--5--5--------------------------------|-6--6--6--6--6--6--6--6--6--6--6--6--6--6--6--6--|-7--7--7--7--7--7--7--7--7--7--7--7--7--7--7--7--|-8--8--8--8--8--8--8--8--8--8--8--8--8--8--8--8--|-5--5--5--5--5--5--5--5--5--5--5--5--5--5--5--5--|-5--5--5--5--5--5--5--5--5--5--5--5--5--5--5--5--|
1 /\ /\ /\ /\ /\ /\---101110------101310-----101310-151310-171310-181310-|--11----11----11----12---12-------T------T------T-----|-12-------12-12------13-13----------------------------|-----------12---------15------------------------------|------------------------------------------------------|------------------------------------------------------|
2--------------------------------------------------|-3--3------------3--3--3--3-----------3--3--3--3--|-3--3------------3--3--3--3-----------3--3--3--3--|-1--1------------1--1--1--1-----------1--1--1--1--|-1--1------------1--1--1--1-----------1--1--1--1--|-1--1------------1--1--1--1-----------1--1--1--1--|
1 /\ /\ /\ /\ /\ /\---111411-----111511-----111511-171511-181511-201511-|--12----12---13----13---13---------------------------|-13------13-14------14-14----------------------------|----------15---------15------------------------------|-----------------------------------------------------|-----------------------------------------------------|
2--------------------------------------------------|-4--4------------4--4--4--4-----------4--4--4--4--|-5--5------------5--5--5--5-----------5--5--5--5--|-3--3------------3--3--3--3-----------3--3--3--3--|-3--3------------3--3--3--3-----------3--3--3--3--|-3--3------------3--3--3--3-----------3--3--3--3--|
1 ------------------------------------------------|---------18------16-------15-13\11-13-11-10-11--|12-14-15---14-15----14-15-----------------------|------------------------------------------------|------------------------------------------------|------------------------------------------------|
2-------5--5--5--5--------------------------------|-6--6--6--6--6--6--6--6--6--6--6--6--6--6--6--6--|-7--7--7--7--7--7--7--7--7--7--7--7--7--7--7--7--|-8--8--8--8--8--8--8--8--8--8--8--8--8--8--8--8--|-5--5--5--5--5--5--5--5--5--5--5--5--5--5--5--5--|-5--5--5--5--5--5--5--5--5--5--5--5--5--5--5--5--|
1--13-11-10---------------------------------------|-----------13-11-10------------------------------|--------------------10~--------------------------|-------------------------------------------------|-------------------------------------------------|-------------------------------------------------|
2-------------------------------------------------|11-10-10-10-10-11-11-10--------------------------|10-10-10-10-10-10-10-10-10-----------------------|-8--8--8--8--8--8--8--8--8-----------------------|-8--8--8--8--8--8--8--8--8-----------------------|-8--8--8--8--8--8--8--8--8-----------------------|
2:31
L __--/ \---------------------------13-------------12-----12----|-8-10-8-------8------------15------15----11-------11---10----|--------9---9---9/10~-------x-14-----14---9-12---------10----|---------10----------------12--------------------------------|-------------------------------------------------------------|-------------------------------------------------------------|
R--__------------------------------------------------0--------|-/ \------------------------10-----10-------11-------11-----|9-10-9------9------------------10-10--10-------12------------|------10--10--10/12~-------------8---------------10------14--|--------12-----------------------------------------------12--|---------------------------8-------------10--------------12--|
2:39
L---------------------------------------------------------------------|---------------------------------------------------------------------|-----------------------------------------------------____------____--|------8-----8---5-------7---8---7-------------------/ \----/ \-|5-------------------8---------------5---8---7---4-1012108\7-1012108\7|--0-0---0-0---0---0---0---0---0---0---0---0---0----------------------|
* * * * * * * * * * * * *R--------------------------------------------------------------------|--------------------------------------------------------------------|-----------------------------------------------------___------___---|------8-----8---5-------7---8---7-------------------/ \----/ \--|5-------------------8---------------5---8---7---4--7-8-7\4--7-8-7\4-|--0-0---0-0---0---0---0---0---0---0---0---0---0---------------------| * * * * * * * * * * * * *
L-------------------------------------------------------------------|-------------------------------------------------------------------|-------------------------------------------------------------------|------8-----8---5-------7---8---7-------------------8-7----7-------|5-------------------8----------------12-8-10-7-8-10-----10---10-7--|--0-0---0-0---0---0---0---0---0---0--------------------------------|
* * * * * * * * * * R------------------------------------------------------------------|------------------------------------------------------------------|------------------------------------------------------------------|------8-----8---5-------7---8---7----------------5----------------|5-------------------8----------------8-7-5-4-5-7---8-7-8-7-4------|--0-0---0-0---0---0---0---0---0---0-------------------------------| * * * * * * * * * *
L---------------------------------------------------------------------|---------------------------------------------------------------------|-----------------------------------------------------____------____--|------8-----8---5-------7---8---7-------------------/ \----/ \-|5-------------------8---------------5---8---7---4-1012108\7-1012108\7|--0-0---0-0---0---0---0---0---0---0---0---0---0----------------------|
* * * * * * * * * * * * *R--------------------------------------------------------------------|--------------------------------------------------------------------|-----------------------------------------------------___------___---|------8-----8---5-------7---8---7-------------------/ \----/ \--|5-------------------8---------------5---8---7---4--7-8-7\4--7-8-7\4-|--0-0---0-0---0---0---0---0---0---0---0---0---0---------------------| * * * * * * * * * * * * *
L-------------------------------------------------------------------|-------------------------------------------------------------------|-------------------------------------------------------------------|------8-----8---5-------7---8---7-------------------8-7----7-------|5-------------------8----------------12-8-10-7-8-10-----10---10-7--|--0-0---0-0---0---0---0---0---0---0--------------------------------|
* * * * * * * * * * R------------------------------------------------------------------|------------------------------------------------------------------|------------------------------------------------------------------|------8-----8---5-------7---8---7----------------5----------------|5-------------------8----------------8-7-5-4-5-7---8-7-8-7-4------|--0-0---0-0---0---0---0---0---0---0-------------------------------| * * * * * * * * * *
2:55
B----------------------------------------------------------------|--------------------------__------------------------------__----|-------------------------/ \----------------------------/ \---|----8---7-------8---7---8-10-12-----8---7-------8---7---8-10-12-|5-----------5-------------------5-----------5-------------------|--0---0---0---0---0---0-----------0---0---0---0---0---0---------| * * * * * * * * * * * *
L-----------------------------------------__------_------------------|--------------------------__------------/ \----/ \-----------------|-------------------------/ \-----_----9-10-12-7-9-10-777----666----|----8---7-------8---7---8-10-12--/ \----------------------888----5--|5-----------5-------------------7-8-10------------------------------|--0---0---0---0---0---0---------------------------------------------|
* * * * * * R-----------------------------------------__-------------------------|--------------------------__------------/ \-----__-----------------|-------------------------/ \-----_----9-10-12--/ \---777----666---|----8---7-------8---7---8-10-12--/ \-----------8-10-12-----888----5-|5-----------5-------------------7-8-10------------------------------|--0---0---0---0---0---0---------------------------------------------| * * * * * *
L------------__------_-----------------------------|-----------/ \----/ \----------------------------|-----_----9-10-12-7-9-10-777---666---777---666----|----/ \---------------------888---555---888----5--|0--7-8-10-----------------------------------------|0-------------------------------------------------|
*R------------__------------------------------------|-----------/ \-----__----------------------------|-----_----9-10-12--/ \---777---666---777---666---|----/ \-----------8-10-12----888---555---888----5-|0--7-8-10-----------------------------------------|0-------------------------------------------------|*
L------------__------_----------------------------------------|-----------/ \----/ \---------------------------------------|-----_----9-10-12-7-9-10-777---666---777---666---777---666---|----/ \---------------------888---555---888---555---888----5-|0--7-8-10----------------------------------------------------|0------------------------------------------------------------|
*R------------__------------------------------------------------|-----------/ \-----__----------------------------------------|-----_----9-10-12--/ \---777---666---777---666---777---666---|----/ \-----------8-10-12----888---555---888---555---888----5-|0--7-8-10-----------------------------------------------------|0-------------------------------------------------------------|*
L------------------------------------------------------------|------------------------------------------------------------|101010------999----101010------999---101010------999--------|------111111---888-------111111---888------111111---888-----|---------------------------------------------------------0--|---------------------------------------------------------0--|
R *--------------------------------------------|--------------------------------------------|-777---666---777---666---777---666----------|----888---555---888---555---888----5--------|--------------------------------------0-----|--------------------------------------0-----| *
3:12
L----------------------------------------------------------------------|----------------------------------------------------------------------|14-12-10-12-10---10---------------------------------------------------|---------------14---14-12-14-12-10---12-10---10-----------------------|------------------------------------------13---13-12-13-12-10-12-10-8-|----------------------------------------------------------------------|
R-----------------------------------------------------------------|-----------------------------------------------------------------|-10-9-7--9-7----7------------------------------------------------|-------------10---10-8--10-8-7------7-8-10--8-7------------------|---------------------------------10-------------10--8-7--8-7-----|-------------------------------------------------------------10--|
L-----------------------------------------------------------------|--------------------------------------13-15-13----13-15-13-------|14-12-10-12-10---10----------------------------15----------------|---------------14---14-12-14-12-10-------------------------------|-----------------------------------------------------------------|-----------------------------------------------------------------|
R-----------------------------------------------------------------|--------------------------------------10-11-10----10-11-10-------|-10-9-7--9-7----7------------------------------12----------------|-------------10---10-8--10-8-7-----------------------------------|-----------------------------------------------------------------|-----------------------------------------------------------------|
L----------------------------------------------------------------------|----------------------------------------------------------------------|14-12-10-12-10---10---------------------------------------------------|---------------14---14-12-14-12-10---12-10---10-----------------------|------------------------------------------13---13-12-13-12-10-12-10-8-|----------------------------------------------------------------------|
R-----------------------------------------------------------------|-----------------------------------------------------------------|-10-9-7--9-7----7------------------------------------------------|-------------10---10-8--10-8-7------7-8-10--8-7------------------|---------------------------------10-------------10--8-7--8-7-----|-------------------------------------------------------------10--|
L-----------------------------------------------------------------|--------------------------------------13-15-13----13-15-13-------|14-12-10-12-10----10---------------------------15----------------|---------------14----14-12-14-12-10------------------------------|-----------------------------------------------------------------|-----------------------------------------------------------------|
R-----------------------------------------------------------------|--------------------------------------10-11-10----10-11-10-------|-10-9-7--9-7----7------------------------------12----------------|-------------10---10-8--10-8-7-----------------------------------|-----------------------------------------------------------------|-----------------------------------------------------------------|
3:30
L ^ ^ ^ ^ -------^----^-----8-6-8-5-6---10-8-10-6-8----------------|---10-8-10-6-8--5-----------6-------------8-11-10--------|-7------------------------------------------------10-9---|---------------------------------------------------------|---------------------------------------------------------|---------------------------------------------------------|
R------------------------------------------------------|------------------------------------------------------|-------------------------------^---^-------^---^------|----------------------------8-7-8-5-7---7-5-7-3-7-----|-5---7-8-5-7-4-----5-8-7--8------------7--------------|---7-----------7-5------------------------------------|
L ^-------^----^-------6---9-6-----------^-------------^---|---10-8-10-6-8--5-8---8---------6---10-6------8---11-8--|-7----------------------------7---7---------9---9-------|----------------------------8------------10-------------|--------------------------------------------------------|--------------------------------------------------------|
R-------------------------------------------------------|------------------------2------3---6-3------5---8-5----|----------------------3------3---3--------5---5--------|------------------2--------5------------7--------------|-5---7-8-5-7--4-----4----------------------------------|---7------------7--------------------------------------|
3:34
L ^ ^ ^ ^ ^ ^ --13-12-13-10-12--15-13-15-12-13--17-15-17-13-15-12-13-----------------|10--------------11--------------13--------------------15-17-13-15-11-13|-----------------------------------------------------------------------|-----------------------------------------------------------------------|-----------------------------------------------------------------------|-----------------------------------------------------------------------|
R ^ ^ ^ ^ ---5-3-5---------6-5-6--------10-8-10-6-8-------------------|-3-------6/8-----------8/10-6-------------8-6-0-8-----------|--------------6-----------------------------------3-5-2-3---|------------------------------------------------------------|------------------------------------------------------------|------------------------------------------------------------|
L ^ ^ ^ ^ ^ ^ --13-12-13-10-12--15-13-15-12-13--17-15-17-13-15-12-13--------------^--|10--------------11--------------13--------------------15-17-13-15-11-13|-----------------------------------------------------------------------|-----------------------------------------------------------------------|-----------------------------------------------------------------------|-----------------------------------------------------------------------|
R ^ ^ ^ ^ ---5-3-5---------6-5-6--------10-8-10-6-8-------------------|-3-------6/8-----------8/10-6-------------8-6-0-8-----------|--------------6-----------------------------------3-5-2-3---|------------------------------------------------------------|------------------------------------------------------------|------------------------------------------------------------|
L ^ ^ ^ ^ ^ ^ ^ ^--1312-13--1513-15--17-15-17--15-13-15--13-12-13-12-10-12-10-8-10-1210-12|10-------11-------13--------11--------10--------8--------6-------8-------|-------------------------------------------------------------------------|-------------------------------------------------------------------------|-------------------------------------------------------------------------|-------------------------------------------------------------------------|
R ^ ^ ^ ^ ^ --5-3-5---6-5-6---5-6-8--12-10-12---10-8-6--8-6-5---5-3-----3-6-3---|------------------------8---------6-------5-------3-----6-5---------|3-------5-------7---------------------------------------------------|--------------------------------------------------------------------|--------------------------------------------------------------------|--------------------------------------------------------------------|
L ^ ^ ^ ^ ^ --1312-13--1513-15--17-15-17--15-13-15--13-12-13-|10-------11-------13--------11--------10---------|-------------------------------------------------|-------------------------------------------------|-------------------------------------------------|-------------------------------------------------|
R ^ ^ ^ --5-3-5---6-5-6---5-6-8--12-10-12---10-8-6----|------------------------8---------6-----------|3-------5-------7-----------------------------|----------------------------------------------|----------------------------------------------|----------------------------------------------|
L-10-12----------------------------------------|-------13-15-11-13-10-11----------------------|-------------------------12-10-9-10-----------|------------------------------------12--------|----------------------------------------------|----------------------------------------------|
R-6-8-5-6--------------------------------------|---------8-10-6-8-----------------------------|------------------9-7----7--------------------|----------------------10---8------------------|----------------------------------------------|----------------------------------------------|
3:53
1---------------------------------------------------------------------|---------------------------------------------------------------------|---------------------------------------------------------------------|12-0-0-8-0-0-10-0-0-12-0-0-8-0-0-10-0-0-12-0-0-12-0-0-8-0-0-10-0-0-12|---------------------------------------------------------------------|---------------------------------------------------------------------|
2----------------------------------------------------------|----------------------------------------------------------|----------------------------------------------------------|----------------------------------------------------------|-000-----------------0---------000------------------------|-000-----------------0---------000------------------------|
*** * ***1------------------------------------|------------------------------------|---T--^----T--^----T--^----T--^-----|--17-8-12-15-8-12-14-8-12-15-8-12---|------------------------------------|------------------------------------|
1---------------------------------------------------------------------|---------------------------------------------------------------------|---------------------------------------------------------------------|12-0-0-8-0-0-10-0-0-12-0-0-8-0-0-10-0-0-12-0-0-12-0-0-8-0-0-10-0-0-12|---------------------------------------------------------------------|---------------------------------------------------------------------|
2----------------------------------------------------------|----------------------------------------------------------|----------------------------------------------------------|----------------------------------------------------------|-000-----------------0---------000------------------------|-000-----------------0---------000------------------------|
*** * ***1------------------------------------|------------------------------------|---T--^----T--^----T--^----T--^-----|--17-8-12-15-8-12-14-8-12-15-8-12---|------------------------------------|------------------------------------|
1---------------------------------------------------------------------|---------------------------------------------------------------------|---------------------------------------------------------------------|12-0-0-8-0-0-10-0-0-12-0-0-8-0-0-10-0-0-12-0-0-12-0-0-8-0-0-10-0-0-12|---------------------------------------------------------------------|---------------------------------------------------------------------|
2----------------------------------------------------------|----------------------------------------------------------|----------------------------------------------------------|----------------------------------------------------------|-000-----------------0---------000------------------------|-000-----------------0---------000------------------------|
*** * ***1------------------------------------|------------------------------------|---T--^----T--^----T--^----T--^-----|--17-8-12-15-8-12-14-8-12-15-8-12---|------------------------------------|------------------------------------|
1---------------------------------------------------------------------|---------------------------------------------------------------------|---------------------------------------------------------------------|12-0-0-8-0-0-10-0-0-12-0-0-8-0-0-10-0-0-12-0-0-12-0-0-8-0-0-10-0-0-12|---------------------------------------------------------------------|---------------------------------------------------------------------|
2----------------------------------------------------------|----------------------------------------------------------|----------------------------------------------------------|----------------------------------------------------------|-000-----------------0---------000------------------------|-000-----------------0---------000------------------------|
*** * ***1------------------------------------|------------------------------------|---T--^----T--^----T--^----T--^-----|--17-8-12-15-8-12-14-8-12-15-8-12---|------------------------------------|------------------------------------|
4:05
1------------------------------------------------------------------------|------------------------------------------------------------------------|------------------------------------------------------------------------|15-0-0-12-0-0-14-0-0-15-0-0-12-0-0-14-0-0-15-0-0-15-0-0-12-0-0-14-0-0-15|------------------------------------------------------------------------|------------------------------------------------------------------------|
2----------------------------------------------------------|----------------------------------------------------------|----------------------------------------------------------|----------------------------------------------------------|-000-----------------0---------000------------------------|-000-----------------0---------000------------------------| *** * ***
1--------------------------------------|--------------------------------------|---T---^----T---^----T---^----T---^---|--20-12-15-19-12-15-17-12-15-19-12-15-|--------------------------------------|--------------------------------------|
2--------------------------------------|--------------------------------------|--------------------------------------|--------------------------------------|--00-------0---------0---------0------|--00-------0---------0---------0------| ** * * *
1------------------------------------------------------------------------|------------------------------------------------------------------------|------------------------------------------------------------------------|15-0-0-12-0-0-14-0-0-15-0-0-12-0-0-14-0-0-15-0-0-15-0-0-12-0-0-14-0-0-15|------------------------------------------------------------------------|------------------------------------------------------------------------|
2----------------------------------------------------------|----------------------------------------------------------|----------------------------------------------------------|----------------------------------------------------------|-000-----------------0---------000------------------------|-000-----------------0---------000------------------------| *** * ***
1--------------------------------------|--------------------------------------|---T---^----T---^----T---^----T---^---|--20-12-15-19-12-15-17-12-15-19-12-15-|--------------------------------------|--------------------------------------|
2--------------------------------------|--------------------------------------|--------------------------------------|--------------------------------------|--00-------0---------0---------0------|--00-------0---------0---------0------| ** * * *
1------------------------------------------------------------------------|------------------------------------------------------------------------|------------------------------------------------------------------------|15-0-0-12-0-0-14-0-0-15-0-0-12-0-0-14-0-0-15-0-0-15-0-0-12-0-0-14-0-0-15|------------------------------------------------------------------------|------------------------------------------------------------------------|
2----------------------------------------------------------|----------------------------------------------------------|----------------------------------------------------------|----------------------------------------------------------|-000-----------------0---------000------------------------|-000-----------------0---------000------------------------| *** * ***
1--------------------------------------|--------------------------------------|---T---^----T---^----T---^----T---^---|--20-12-15-19-12-15-17-12-15-19-12-15-|--------------------------------------|--------------------------------------|
2--------------------------------------|--------------------------------------|--------------------------------------|--------------------------------------|--00-------0---------0---------0------|--00-------0---------0---------0------|
** * * *1------------------------------------------------------------------|------------------------------------------------------------------|------------------------------------------------------------------|15-0-0-12-0-0-14-0-0-15-0-0-12-0-0-14-0-0-15-0-0-15-0-0-12-0-0-14-|------------------------------------------------------------------|------------------------------------------------------------------|
2----------------------------------------------------------|----------------------------------------------------------|----------------------------------------------------------|----------------------------------------------------------|-000-----------------0---------000------------------------|-000-----------------0---------000------------------------| *** * ***
4:15
__1 / \-------------------------------------------------------13-17-13-----|-----------------------------------------------------15---------15--|----------------------------------------------------14--------------|-15-15-15-14-|14-|-12~------12-12-12-14-|-14-|-15--15---------------|--------------------------------------------------------------------|--------------------------------------------------------------------|
2----------------------------------------------------|----------------------------------------------------|----------------------------------------------------|----------------------------------------------------|-12-12-12-10---10---8-------8-8-8-10---10---12------|-12-12-12-10-|-10-|-8-------8-8-8-10-|-10-|-12------|
1----------------------------------------------------------|----------------------------------------------------------|----------------------------------------------------------|---------------------------------------------14-|-14-|----|-13-13-13-15-|-15-|-17~-------------17-17-17--------------|----------------------------------------------------------|
2----------------------------------------------------------|----------------------------------------------------------|----------------------------------------------------------|----------------------------------------------------------|-5-5-5-7---7---8--------------------8-8-8-10---10---------|-5-5-5-7-|-7-|-8--------------------8-8-8-10-|-10-|-------|
4:22
1 -----------------------------------------|-----------------------------------------|-19~----------------15~-----------\------|-----------------------------------------|-----------------------------------------|-----------------------------------------|
2-----------------------------------------|-----------------------------------------|-----------------------------------------|-----3---------3---------0---------0-----|5-55-5-55-5-55-5-55-1-11-1-11-1-11-1-11--|-----------------------------------------|* ** * ** * ** * ** * ** * ** * ** * **
1 _--/ \--------------8-6-5---5--------|-6-8-6---6-8-6-5-6-------8---8-6-5--|-------9----------------------------|------------------------------------|------------------------------------|------------------------------------|
2-------------------------------------|-------------------------------------|-----2---------2---------------------|3-33-3-33-3-33-3-33-2-222-222-3------|--------------------------------1-3--|-------------------------------------|* ** * ** * ** * ** * *** *** * * *
4:27
1 -------------------------------------------------|-^---^----^-----/\-----/\-----/\-----/\-----/\---|757-979-10910-121012-141214-151415-171517-191719-|-------------------------------------------------|-------------------------------------------------|-------------------------------------------------|
2-----------------------------------------|-----------------------------------------|-----------------------------------------|-----3---------3---------0---------0-----|5-55-5-55-5-55-5-55-1-11-1-11-1-11-1-11--|-----------------------------------------|* ** * ** * ** * ** * ** * ** * ** * **
4:30 __1 / \ )(-15-17-15-17-18-20-18-17----20--18-17---------|-------------------------20----------20-18-17-|----------------------------------------------|----------------------------------------------|----------------------------------------------|----------------------------------------------|
2-------------------------------------|-------------------------------------|-----2---------2---------------------|3-33-3-33-3-33-3-33-2-222-222-3------|--------------------------------1-3--|-------------------------------------|* ** * ** * ** * ** * *** *** * * *
4:32 __ __1 / \ / \------15-17-15----15-------17-20-17--17-|-18------------18---------18-------18---|---------------------19--19-------------|----------------------------------------|----------------------------------------|----------------------------------------|
2-----------------------------------------|-----------------------------------------|-----------------------------------------|-----3---------3---------0---------0-----|5-55-5-55-5-55-5-55-1-11-1-11-1-11-1-11--|-----------------------------------------|* ** * ** * ** * ** * ** * ** * ** * **
4:35
1 ^20---20-17---------15-18-17-15----15------|---------18------17------------18---18-17-|----------17----17------------------------|-----------19--17-------------------------|------------2019--------------------------|------------------------------------------|
2-------------------------------------|-------------------------------------|-----2---------2---------------------|3-33-3-33-3-33-3-33-2-222-222-3------|--------------------------------1-3--|-------------------------------------|* ** * ** * ** * ** * *** *** * * *
4:38
1--------------------------------------------------------------------|18---15-1515-15/17-1717-17\13-1313-13/15-1515-15\11-1111-11/13-1313-|--------------------------------------------------------------------|--------------------------------------------------------------------|--------------------------------------------------------------------|--------------------------------------------------------------------|
2-----------------------------------------|-----------------------------------------|-----------------------------------------|-----3---------3---------0---------0-----|5-55-5-55-5-55-5-55-1-11-1-11-1-11-1-11--|-----------------------------------------|* ** * ** * ** * ** * ** * ** * ** * **
4:41
1 __------------------------------------------/ \-------------|-13\10-1010-10/11-1111-11\8-88-8/10-1010-8-10-8-------8-10-|-----------------------------------------------9--9-10-----|------------------------------------------------10---------|-----------------------------------------------------------|-----------------------------------------------------------|
2-------------------------------------|-------------------------------------|-----2---------2---------------------|3-33-3-33-3-33-3-33-2-222-222-3------|--------------------------------1-3--|-------------------------------------|* ** * ** * ** * ** * *** *** * * *
4:43
1-----------------------------------|-8-10------------8-10--------------|------9-10----12------9-10----12---|-----------------------------------|-----------------------------------|-----------------------------------|
2-----------------------------------------|-----------------------------------------|-----------------------------------------|-----3---------3---------0---------0-----|5-55-5-55-5-55-5-55-1-11-1-11-1-11-1-11--|-----------------------------------------|* ** * ** * ** * ** * ** * ** * ** * **
4:45 __1 / \------12-10-8-10-8----------------------------------------------|-8-10--------------11-10-8-10------8-10-----8-10-----11-10-8-ph-|------------------------------9-10------7-9------7-9---------9~-|----------------------------------------------------------------|----------------------------------------------------------------|----------------------------------------------------------------|
2--------------------------------------------------------------|--------------------------------------------------------------|-----2---------2----------------------------------------------|3-33-3-33-3-33-3-33-2-222-222-2-3-----2-3-----2-3-----5-3-2---|----------------------------------1-3-----1-3-----1-3-------3-|--------------------------------------------------------------|* ** * ** * ** * ** * *** ***
4:51
1-------------------------------------------------|-------------------------------------------------|-------------------------------------------------|0-0-0-0-0-0-2-2-2-3-3-3-------------3-3-3-2-2-2--|------------------------1-1-1-1-1-1--------------|-------------------------------------------------|
2 __ __ ^ / \ ^ / \ 17-13--------13-17-13-13-10-------10-13-10---|----15------15------------11-----11----------|------14---14--------------10---10-----------|-------15-15----------------12-12------------|--------17-------------------13--------------|---------------------------------------------|
1------------------------------------------------|------------------------------------------------|------------------------5-5-5-3-3-3-2-2-2-------|------------2-2-2-3-3-3-------------------3-3-3-|3-3-3-3-3-3-------------------------------------|------------------------------------------------|
2 __ __ ^ / \ ^ / \-15-12--------12-15-12-17-13-------13-17-13--------|-----13-----13-------------15-----15-------15------|------12---12---------------14---14---------14-----|-------14-14-----------------15-15-----------15----|--------15--------------------17--------------17---|---------------------------------------------------|
4:54
1-------------------------------------------------|-------------------------------------------------|-------------------------------------------------|0-0-0-0-0-0-2-2-2-3-3-3-------------3-3-3-2-2-2--|------------------------1-1-1-1-1-1--------------|-------------------------------------------------|
2 __ _ ^ / \ ^ / \ 17-13--------13-17-13-13-10-------10-13-10---|----15------15------------11-----11----------|------14---14--------------10---10-----------|-------15-15----------------12-12------------|--------17-------------------13--------------|---------------------------------------------|
1------------------------------------------------|------------------------------------------------|------------------------------------------------|------------2-2-2-3-3-3-5-5-5-3-3-3-2-2-2-------|3-3-3-3-3-3-------------------------------3-3-3-|------------------------------------------------|
2 __ __ ^ / \ ^ / \-15-12--------12-15-12-17-13-------13-17-13--------|-----13-----13-------------15-----15-------15------|------12---12---------------14---14---------14-----|-------14-14-----------------15-15-----------15----|--------15--------------------17--------------17---|---------------------------------------------------|
4:59
1-------------------------------------------------|-------------------------------------------------|-------------------------------------------------|0-0-0-0-0-0-2-2-2-3-3-3-------------3-3-3-2-2-2--|------------------------1-1-1-1-1-1--------------|-------------------------------------------------|
__2 /\ ^ ^ ^ ^ ^ ^ / ---131713-1817-13-2017-13-2217-13-2017-13-1817-13-2017-13-1817-13-17-|--15-------T-------T-------T-------T-------T-------T-------T---------|-14------------------------------------------------------------------|15-------------------------------------------------------------------|---------------------------------------------------------------------|---------------------------------------------------------------------|
1------------------------------------------------|------------------------------------------------|------------------------5-5-5-3-3-3-2-2-2-------|------------2-2-2-3-3-3-------------------3-3-3-|3-3-3-3-3-3-------------------------------------|------------------------------------------------|
2___ ___________________________________________________ \ / \-13/15-171517151715/17181718171817/18201820182018/20222022202220-|--------T---T---T------T---T---T------T---T---T------T---T---T---|-----------------------------------------------------------------|-----------------------------------------------------------------|------------------------
Please rate this tab:
x1.0