Within The Ruins - Behold The Harlot tab version 2

"Behold The Harlot"

BY: WITHIN THE RUINS

Transcribed by Joe Keller
jkguitar@comcast.net

[VIDEO COMING SOON!]

Please Do Not Copy without Permission.

THANKS AND ENJOY!

Tuning
G# D# G# C# F A#


you know the deal..

h	= hammer on
p	= pull off
/ \	= slides
*	= harmonic
^	= bend
s	= speed pick
~	= vibr.
|	= break; start/end bar

ect....

|-------9p5-----------------------||-----------7---6h9p6h7h9---------||-------------6-------------------||---------------------------------||-----------------------------4h8-||-0-0-0-------------------0-0-----|
-----------------------------------------------------------| -----------------------------------------------------------| -----------------------------------------------------------| -----------------------------------------------------------| -----------------------------------------------------------| -4-4-4-7^-4-7^-6^-444-444-444-4-4-4-7^-4-7^-6^-444-444-444-|
---------------------------------| ---------------------------------| ---------------------------------| ---------------------------------| ---------------------------------| -0-0-0-0-0-0-0-0-0-0-0-0-0-0-0-0-|
-------------------------------------------------| -------------------------------------------------| -------------------------------------------------| -------------------------------------------------| -------------------------------------------------| -11-11-11-11-11-11-11-11-11-11-11-11-11-11-11-11-|
GTR 2|-----------------7-9-7h9p7---------------||-9h10p9-6-7-9-10-----------10-9-10-9-7-6-||-----------------------------------------||-----------------------------------------||-----------------------------------------||-----------------------------------------|
|-----------------------------------------------------||-----------------------------------------------------||-----------------------------------------------------||-----------------------------------------------------||-----------------------------------------------------||-6^--6^--6^--6^--7-6-3-4----6^--6^--6^--6^--7-6-3-4--|
|--------------------------------------------------||--------------------------------------------------||--------------------------------------------------||--------------------------------------------------||-4--4--4-4---4--4-4---4-4-4-4--4--4--4-4---4--4-4-||-3--3--3-3---3--3-3---3-3-3-3--3--3--3-3---3--3-3-|
---------------------------------------------------------| ---------------------------------------------------------| ---------------------------------------------------------| ---------------------------------------------------------| -4--4--4--4-4---4--4-4---4-4-4-4--4--4--4-4---4--4-4---4-| -3--3--3--3-3---3--3-3---3-3-3-3--3--3--3-3---3--3-3---3-|
GTR 2|-----------------9-7h9p7---------------|-10-9-7-6-7-9-10---------10-9---10-9-7-|---------------------------------------|---------------------------------------|---------------------------------------|---------------------------------------
-----------------9-7h9p7------| -10-9-7-6-7-9-10---------10-9-| ------------------------------| ------------------------------| ------------------------------| ------------------------------|
0:32|-----------------------------------------------||-----------------------------------------------||-----------------------------------------------||-------------------------6p3-------------------||-4--4-4---4--4-4---4-4-4-----4-------4--4--4-4-||-3--3-3---3--3-3---3-3-3-------3h4h6----3--3-3-|
----------------------------------------------------------| ----------------------------------------------------------| ----------------------------------------------------------| ---------------6p3------------------------6p3-------------| -4--4--4--4-4------4-------4-4-4--4--4-4------4-------4h8-| -3--3--3--3-3--------3h4h6---3-3--3--3-3--------3h4h6-----|
|-----------------------------------------------------------||-----------------------------------------------------------||-----------------------------------------------------------||-----------------------------------------------------------||-----------------------------------------------------------||-4-4-4-7^-4-7^-6^-444-444-444-4-4-4-7^-4-7^-6^-444-444-444-|
-----------------------------------------------------------------| -----------------------------------------------------------------| -----------------------------------------------------------------| -6p3-------------6p3-------------6p3-------------6p3-------------| -----4-------4h8-----4-------4h8-----4-------4h8-----4-------4h8-| -------3h4h6-----------3h4h6-----------3h4h6-----------3h4h6-----|
GTR 2|---------------------------------------------------------------------||---------------------------------------------------------------------||---------------------------------------------------------------------||-9p6--------------9p6--------------9p6--------------9p6--------------||-----8-------8h11-----8-------8h11-----8-------8h11-----8-------8h11-||-------6h7h9------------6h7h9------------6h7h9------------6h7h9------|
|-------------------------------------------------||-------------------------------------------------||-------------------------------------------------||-4--4-4-4--4-4-4---4---4--6--6-6-6--6--6---6---6-||-4--4-4-4--4-4-4---4---4--4--4-4-4--4--4---4---4-||-4--4-4-4--4-4-4---4---4--3--3-3-3--3--3---3---3-|
-------------------------------------------------| -------------------------------------------------| -------------------------------------------------| -7--7-7-7--7-7-7---7---7--6--6-6-6--6--6---6---6-| -9--9-9-9--9-9-9---9---9--8--8-8-8--8--8---8---8-| -7--7-7-7--7-7-7---7---7--6--6-6-6--6--6---6---6-|
GTR 2|------------------14~-------------------------------------------14~------------------||-----10h14p10---------------------12h14p12-12~------10h14p10-------------------------||-/11-----------11------/11--h13h14--------------/11-----------11------11~--11h13p10~-||-------------------------------------------------------------------------------------||-------------------------------------------------------------------------------------||-------------------------------------------------------------------------------------|
----------------------------------------------------------------------------------------------|----------10h14p10----------------10h14p10-----------------9h12p9----------------9h12p9-------|-11----11----------11----11----11----------11-----10----10--------10----10----10--------10----|----11----------------11----11-----------------11----11--------------11----11--------------11-|----------------------------------------------------------------------------------------------|----------------------------------------------------------------------------------------------|
---------------------------------------------------------------------------------------------|----------10h14p10----------------10h14p10----------------9h12p9----------------9h12p9-------|-11----11----------11----11----11----------11----10----10--------10----10----10--------10----|----12----------------12----12----------------12----11--------------11----11--------------11-|---------------------------------------------------------------------------------------------|---------------------------------------------------------------------------------------------|
|--------------------------------------------------||--------------------------------------------------||--------------------------------------------------||-6p3-------------------------6p3------------------||-----4-------4h8-----------------4-------4h8------||-------3h4h6-----4444--4444--------3h4h6-----4444-|
-----------------------------------------------------| -----------------------------------------------------| -----------------------------------------------------| -6p3----------------------------6p3------------------| -----4-------4h8--------------------4-------4h8------| -------3h4h6-----3h6-4444-4444--------3h4h6-----4444-|
--------------------7--------------------------------| ------------------9----------------------------------| -------------6h10------------------------------------| -6p3-------------------------------------------------| -----4--------------------------4-4-4-4-4-4-4-4------| -------3h4h6----------4444-4444-4-4-4-4-4-4-4-4-4444-|
--------------------7-----------------------------------| ------------------9-------------------------------------| -------------6h10---------------------------------------| -6p3----------------------------------------------------| -----4--------------------------------------------------| -------3h4h6----------4444-4444-666666555555333333-4444-|
--------------------7--------------------------------| ------------------9----------------------------------| -------------6h10------------------------------------| -6p3-------------------------------------------------| -----4--------------------------4-4-4-4-4-4-4-4------| -------3h4h6----------4444-4444-4-4-4-4-4-4-4-4-4444-|
--------------------7--------------------------------------------------------7-| ------------------9--------------------------------------------------------9---| -------------6h10-----------------------------------------------------6h10-----| -6p3------------------------------------------------------6p3------------------| -----4--------------------------------------------------------4----------------| -------3h4h6----------4444-4444-666666555555333333-4444---------3h4h6----------|
|-----------------------------------------------------------||-----------------------------------------------------------||-----------------------------------------------------------||-----------------------------------------------------------||-----------------------------------------------------------||-4-4-4-7^-4-7^-6^-444-444-444-4-4-4-7^-4-7^-6^-444-444-444-|
---------------------------------------------------------| ---------------------------------------------------------| ---------------------------------------------------------| -6p3-------------6p3----------------6p3------------------| -----4-------4h8-----4-------4h8--------4-------4h8--*8^-| -------3h4h6-----------3h4h6--------------3h4h6----------|
----------------------------------------------------------| ----------------------------------------------------------| ----------------------------------------------------------| -6p3-------------6p3----------------6p3-------------------| -----4-------4h8-----4-------4h8--------4-------4h8-------| -------3h4h6-----------3h4h6--------------3h4h6------3-4^-|
[back to chorus 1x]
GTR 1 GTR 2|-----------------|-----------------||-----------------|-----------------||-----------------|-----------------||-6p3-------------|-6p3-------------||-----4-------4h8-|-----4-------4h8-||-------3h4h6-----|-------3h4h6-----|
-------------------------------------------------------| -------------------------------------------------------| -------------------------------------------------------| -----------------------------------6p3-----------------| -------------4-4-4-4-4-4-4-4-----------4-------4h8-----| -4444--4444--4-4-4-4-4-4-4-4-4444--------3h4h6-----3h6-|
----------------------------------------------------------| ----------------------------------------------------------| ----------------------------------------------------------| --------------------------------------6p3-----------------| ------------------------------------------4-------4h8-----| -4444--4444--666666555555333333-4444--------3h4h6-----3h6-|
------------------------------------------------------7-| ----------------------------------------------------9---| -----------------------------------------------6h10-----| -----------------------------------6p3------------------| -------------4-4-4-4-4-4-4-4-----------4----------------| -4444--4444--4-4-4-4-4-4-4-4-4444--------3h4h6----------|
-----------------------------------------------------------------10h13-| -------------------------------------------------------9h12-9h12-------| --------------------------------------------------6h10-----------------| --------------------------------------6p3------------------------------| ------------------------------------------4----------------------------| -4444--4444--666666555555333333-4444--------3h4h6----------------------|
|-----------------------------------------------------------||-----------------------19----------------------------------||---11---11/14----14/18----18----18----18----18-19s-22s-23\-||-----------------------------------------------------------||-9----9-------12-------------16----16----16----------------||-----------------------------------------------------------|
-------------------------------------------------------| -------------------------------------------------------| ------------------------------------2-------------5----| ---------------------------------6-----6-------9-----9-| ----------------3--3--7--6-----4-------------7---------| -4-4--4-4--4-4--4--4--7--6--3-------------6------------|
-----------------------------------------------------------| -----------------------19----------------------------------| ---11---11/14----14/18----18----18----18----18-19s-22s-23\-| -----------------------------------------------------------| -9----9-------12-------------16----16----16----------------| -----------------------------------------------------------|
-------------------------------------------------------| -------------------------------------------------------| ------------------------------------2-------------5----| ---------------------------------6-----6-------9-----9-| ----------------3--3--7--6-----4-------------7---------| -4-4--4-4--4-4--4--4--7--6--3-------------6------------|
|----------------------------||----------------------------||---------2-------------5----||------6-----6-------9-----9-||----4-------------7---------||-3-------------6------------|
|-------------------------------------------------||-------------------------------------------------||-------------------------------------------------||---------------------------------6p3-------------||-2222-2222---2222--2--2222-2222------4-------4h8-||-3333-3333---3333--3--3333-3333--------3h4h6-----|
--------------------------------------------------| --------------------------------------------------| --------------------------------------------------| ---------------------------------6p3--------------| -2222-2222---2222--2--2222-2222------4-------8h11-| -3333-3333---3333--3--3333-3333----------6h9------|
-------------------------------------------------| -------------------------------------------------| -------2----------5------------------------------| -----6---6------9---9----------------------------| ---4----------7--------2222-2222----2-2-2--2-2-2-| -3----------6----------3333-3333----3-3-3--3-3-3-|
---------------------------------------| ---------------------------------------| ------------------------2----------5---| -6p3------------------6---6------9---9-| -----4-------4h8----4----------7-------| -------3h4h6------3----------6---------|
|--------------------------------------------------------||--------------------------------------------------------||--------------------------------------------------------||----------------------------------------6p3-------------||-2-2-2--2-2-2---2-2-2--2--2-2-2--2-2-2------4-------4h8-||-3-3-3--3-3-3---3-3-3--3--3-3-3--3-3-3--------3h4h6-----|
|-----------------------------------------------------------------------------||-----------------------------------------------------------------------------||---------------------------------------------------------------2---------5---||----------------------------------------6p3------------------6---6-----9---9-||-2-2-2--2-2-2---2-2-2--2--2-2-2--2-2-2------4-------8h11---4---------7-------||-3-3-3--3-3-3---3-3-3--3--3-3-3--3-3-3----------6h9------3---------6---------|
[Back to Chorus 1x]
GTR 2 GTR 1|----------------------|------------------------||----------------------|------------------------||----------------------|------------------------||-9p6--------------6p3-|------------------------||-----8-------8h11-----|-4-------4h8--4444-4444-||-------6h7h9----------|---3h4h6------4444-4444-|
Tap to rate this tab
 
# A B C D E F G H I J K L M N O P Q R S T U V W X Y Z