Within The Ruins – Red Flagged tab

"RED FLAGGED"

WITHIN THE RUINS

Transcribed by Joe Keller
[Youtube user/V8EATR]
jkguitar@comcast.net

VIDEO COMING SOON!

Please Do Not Copy without Permission.

THANKS AND ENJOY!

Tuning
G# D# G# C# F A#


h	= hammer on
p	= pull off
/ \	= slides
*	= harmonic
^/v	= bend
s	= speed pick
d^/v	= dive w/ bar (u/d)
~	= vibr.
|	= break; start/end bar


|---------------------------------------------------------||---7--------------------------------------------------9^-||-----4h6-------------------------------------------------||-------------6/7-----3^------6^--------------7h11-7^-----||-----------4-------4-------4-------------4h8-------------||-4-------3-------3-------3-------7-4-6-3-----------------|
-^13v---------------------------------------------| ------------10-13-14--14/16--14-13-10--9-9h10-9~--| -------10~----------------------------------------| --------------------------------------------------| --------------------------------------------------| --------------------------------------------------|
------------------------------------------| --------------------6~----------------7---| -----4h6-4~-------------------------------| -4h7---------7-6-3--------------7-6-4---4-| ------------------------4-3-4-7-----------| ------------------------4-3-4-7-----------|
|----------14-------------10----------------10-||-12-11-12----12-11-12-14----14-12-11-12-14----||----------------------------------------------||----------------------------------------------||----------------------------------------------||----------------------------------------------|
----------14-------------10----------------10-| -12-11-12----12-11-12-14----14-12-11-12-14----| ----------------------------------------------| ----------------------------------------------| ----------------------------------------------| ----------------------------------------------|
---------14--------------------------------| -11-9-11----11-9-11-12-14-12-11-9-11-12-14-| -------------------------------------------| -------------------------------------------| -------------------------------------------| -------------------------------------------|
---------14--------------------------------| -11-9-11----11-9-11-12-14-12-11-9-11-12-14-| -------------------------------------------| -------------------------------------------| -------------------------------------------| -------------------------------------------|
|-------------------------------------||-------------------------------------||-11-9-11--12--11--9h11p9----9-12--11-||-------------------------12----------||-------------------------------------||-------------------------------------|
--------------------------------------| --------------------------------------| --------------------------------------| -9-8-9-11-12-11-9-8-8h9p8------8------| --------------------------10-9---9-10-| --------------------------------------|
-------------------------------------| -------------------------------------| -11-9-11--12--11--9h11p9----9-12--11-| -------------------------12----------| -------------------------------------| -------------------------------------|
-------------------------------| -------------------------------| -------------------------------| -9-8-9-12-11-9-8h9p8-----------| ---------------------10-9-*9~--| -------------------------------|
|----------9-9h10p9-------------------------------||-12-11-12----------12-11-11h12p11-------11-------||----------------------------------12-11----12-11-||-------------------------------------------------||-------------------------------------------------||-------------------------------------------------|
----------9-9h10p9-------------------------| -12-11-12----------12-11-11h12p11----------| ----------------------------------12-11-11-| -------------------------------------------| -------------------------------------------| -------------------------------------------|
----------9-9h10p9-------------------------------| -12-11-12----------12-11-11h12p11-------11-------| ----------------------------------12-11----12-11-| -------------------------------------------------| -------------------------------------------------| -------------------------------------------------|
----------9-9h10p9----------------------14-|-------| -12-11-12----------12-11-11h12p11----------|-------| ----------------------------------12-11----|-------| -------------------------------------------|--9\-5-| -------------------------------------------|--9\-5-| -------------------------------------------|-------|
|-----------------------------------------||-----------------------------------------||-----------------------------------------||-----------------------------------------||-4-44-44-444-4-444-44-44-444-4-44-44-444-||-3-33-33-333-3-333-33-33-333-3-33-33-333-|
--------------------------------------------------| --------------------------------------------------| --------------------------------------------------| --------------------------------------------------| -4-444-44-44-444-444-444--4-44-44-4-444-----------| -3-333-33-33-333-333-333--3-33-33-3-333-3333-3333-|
|--------------------------9---------------------------||-----------------7/10p7h9-----------------------------||------------6666--------------------------------------||-----7^v-------------------------6--3-----------------||----------------------------------------4-----4-----4-||-444------4-----------------0000------3---6-3---6-3---|
-------------------------------------------9------9/14-14-|-----------------6/9\6-------------------7---10-7---------|------------6666-------7-6--------------------------------|------3--------------------------7^v----------------------|-4444----4------------------------------------------------|----------------------------4444------4-------------------|
--------------------------------------9-7-5---------------|------9-6-----9-6-----9-6-----9-6-----------9-6h7p6-----9-|----------7-6-----7-6-----7-6-----7-6---------------7-6---|-s11------------------------------------------------------|-s8-------------------------------------------------------|-s11------------------------------------------------------|
-----------------------------------| -12-9-10~--9h10p9-------9-10-9/10~-| ------------------10-11------------| -----------------------------------| -----------------------------------| -----------------------------------|
-----------------------------------------------| -9-10-9-10-9h10p9---------------9-10~--9h10-9~-| ------------------11-10~--10-11----------------| -----------------------------------------------| -----------------------------------------------| -----------------------------------------------|
[ BKGRD GTR ]|----------------------------------------------------||----------------------------------------------------||----------------------------------------------------||----------------------------------------------------||-4-4-4-4-4444-4-4--12-12-12-12-12-12-11-11-11-11-11-||-4-4-4-4-4444-4-4-----------------------------------|
----------------------------------| ----------------------------------| ----------------------------------| ----------------------------------| -9-9-9-9-9999-9-9-4-4-444-4-4-444-| -9-9-9-9-9999-9-9-3-3-333-3-3-333-|
|---------------------------------------------||---------------------------------------------||---------------------------------------------||---------------------------------------------||---------------------------------------------||-7-6-4-3-7-6-4---7-6-4-3-6-7-3---77-44-66-33-|
|--------------------------------------------||--------------------------------------------||-14-13-11-10-13-14-11--14-13-11-10-13-14-10-||--------------------------------------------||--------------------------------------------||--------------------------------------------|
|--------------------------------------------||--------------------------------------------||-14-13-11-10-13-14-11--14-13-11-10-13-14-10-||--------------------------------------------||--------------------------------------------||--------------------------------------------|
-------------------13-| ----------------------| -14-13-11-10-11-13----| ----------------------| ----------------------| ----------------------|
|------------------------------------------------------------||------------------------------------------------------------||------------------------------------------------------------||------------------------------------------------------------||-4-7-6-4-7-6-4-7-3-6-4-3-6-4-3-44444-4-4-444----4-4-44-44-4-||-4-7-6-4-7-6-4-7-3-6-4-3-6-4-3-44444-4-4-444-4444-4-44-44-4-|
----------------------------------------------------------| ----------------------------------------------------------| ----------------------------------------------------------| ----------------------------------------------------------| ----4-3--------3-3-33-33-3--33344-4-4-444-----4-4-44-44-4-| -3s-4-3-6s--3333-3-33-33-3--33344-4-4-444--4444-4-44-44-4-|
-----------------------------| -----------------------------| -----------------------------| -----------------------------| ----4-3--------3-3-33-33-3-4-| -3s-4-3-6s--3333-3-33-33-3-4-|
|----------------------------------------||----------------------------------------||----------------------------------------||-7-6-----7-6h7p6-----11-9-6h7p6---------||-----4-4---------8-4------------8-4-*4^-||-----3-3-----------4--------------------|
--------------------------------| --------------------------------| --------------------------------| --------------------------------| --------------------------------| -4-7^v-4-6^v-4-3-4-7^v-4-6^v--3-|
|----------------------------------------------------------||----------------------------------------------------------||----------------------------------------------------------||--------------------------------121212-12-121212----------||-----------5-5-5--4-4-4--7-7-7--9-9-9--9--9-9-9-----------||-4-4-4--44-5-5-5--4-4-4--7-7-7--9-9-9--9--9-9-9--8-11-8-4-|
|--------------------------------------------------||--------------------------------------------------||--------------------------------------------------||--------------------------------------------------||-------333-3-333-3-3--3-3-3--333-3-333-3-3--3-3-3-||-4--4--444-4-444-4-4--4-4-4--444-4-444-4-4--4-4-4-|
------------------------------------------------| ------------------------------------------------| ------------------------------------------------| ------------------------------------------------| -333-3-333-3-3-3--------3--333-3-333-3-3--3-3-3-| -444-4-444-4-4-4--3^-3^-4--444-4-444-4-4--4-4-4-|
-------------------------------------------------------| -------------------------------------------------------| -------------------------------------------------------| -------------------------------------------------------| -333-3-333-------3---3--333-3-333-3-3-3-3-3--333-3-333-| -444-4-444-3^-3^-4---3--333-3-333-3-3-3-3-3--333-3-333-|
-------------------------------------------------| -------------------------------------------------| -------------------------------------------------| -------------------------------------------------| -3-3-3---2--222-2-222-2-2-2-2-2--222-2-222-2-2-2-| -3-3-3---2--222-2-222-2-2-2-2-2--222-2-222-2-2-2-|
|-----------------------------------------------------||-7^v-9-10-10^v-9-7-6s----7^v-9-10-10^v-9-7-6s-10s-9s-||----------------------6s-----------------------------||-----------------------------------------------------||-----------------------------------------------------||-----------------------------------------------------|
|-----------------|----------------------------------||-----------------|----------10--10-12-13-12--9-10-9-||-----------------|-10-11-13-------------------------||-----------------|----------------------------------||-----------------|----------------------------------||-666-6-666-6-666-|----------------------------------|
----------------------------------| ----------10--10-12-13-12--9-10-9-| -10-11-13-------------------------| ----------------------------------| ----------------------------------| ----------------------------------|
----------------------------------| -9-10-9-12--13-12-10-10-----------| -------------------------13-11-10-| ----------------------------------| ----------------------------------| ----------------------------------|
----------------------------------| -9-10-9-12--13-12-10-10-----------| -------------------------13-11-10-| ----------------------------------| ----------------------------------| ----------------------------------|
|-----------------------------||-----------------------------||---------------------6-------||---------------------3-------||-4444-4444-4444-4443---4-3-4-||-4444-4444-4444-4443---4-3-4-|
|---------------------------------||---------------------------------||---------------------------------||---------------------------------||-4h9-----4h9-4h9-----4h9-4h9-----||-----4h7---------4h7---------4h7-|
---------------------------------| ---------------------------------| ---------------------------------| ---------------------------------| -4h9-----4h9-4h9-----4h9-4h9-----| -----4h7---------4h7---------4h7-|
-----------------------------------------| -----------------------------------------| -6h11------6h11-6h11------6h11-6h11------| ------7h11-----------7h11-----------7h11-| -----------------------------------------| -----------------------------------------|
-----------------------------------------| -----------------------------------------| -6h11------6h11-6h11------6h11-6h11------| ------7h11-----------7h11-----------7h11-| -----------------------------------------| -----------------------------------------|
|-----------------------------------------------------------||-----------------------------------------------------------||-----------------------------------------------------------||-----------------------------------------------------------||-4444-4444--44-4-44-4--4444--4444-4444--44-4-44-*8^-444----||-4444-4444--44-4-44-4--4444--4444-4444--44-4-44-----444*4^-|
------------------------------------------------------------|------------------------------------------------------------|------------------------------------------------------------|------------------------------------------------------------|-4444-4444--44-4-44-4--444-----4444-4444--33-3-33-3-3333*4^-|-4444-4444--44-4-44-4--444*4^--4444-4444--44-4-44-4-4444----|
Please rate this tab:
x1.0