Within The Ruins – Floodgates tab

"Floodgates"

BY: WITHIN THE RUINS

Transcribed by Joe Keller
[Youtube.com/user/V8EATR]
jkguitar@comcast.net


Please Do Not Copy without Permission.

THANKS AND ENJOY!

Tuning
G# D# G# C# F A#


h	= hammer on
p	= pull off
/ \	= slides
*	= harmonic
^/v	= bend
s	= speed pick
d^/v	= dive w/ bar (u/d)
~	= vibr.
|	= break; start/end bar



|-------------------------------------------------------------------||-------------------------------------------------------------------||-------------------------------------------------------------------||---------------------------------------------------7p0-6p0---------||-7p0-----7p0---------------------------7p0-5p0-------------5h7-7-7-||-----4-4-----4-0-0h4-4-4-4-4-4-4-4-4-4---------0-0-----------------|
-------------------------------------------------------------------| -------------------------------------------------------------------| -------------------------------------------------------------------| -------------------------------------------------------------------| -7p0-----7p0---------------------------7p0-5p0-----4p0-------------| -----4-4-----4-0-0h4-4-4-4-4-4-4-4-4-4---------0-0-----0-0-0-0-0-0-|
|---------------------------------------||---------------------------------------||---------------------------------------||---------------------------------------||-000-000---000-000-000----000-000-000--||-000-000---000-000-000----000-000-000--|
|---------------------------------------------------------||---------------------------------------------------------||---------------------------------------------------------||-----------------------------------------7p0-6p0---------||-7p0-----7p0---------4-4-4-4-7p0-5p0-------------5h7-7-7-||-----4-4-----4-0-0h4-4-4-4-4---------0-0-----------------|
---------------------------------------------------------| ---------------------------------------------------------| ---------------------------------------------------------| ---------------------------------------------------------| -7p0-----7p0---------4-4-4-4-7p0-5p0-----4p0-------------| -----4-4-----4-0-0h4-4-4-4-4---------0-0-----0-0-0-0-0-0-|
|----------------------------------------------------------||----------------------------------------------------------||---------------------------------4--------------------4---||-----------------7-6-4---7-6-4-----6--7-6-4---7-6-4-----6-||-000-000-000-000-------4-------5------------4-------5-----||-000-000-000-000------------------------------------------|
--------------------------------------| --------------------------------------| -----------------4--------------------| -7-6-4---7-6-4-----6--7-6-4---7-6-4---| -------4-------5------------4-------5-| --------------------------------------|
|-------------------------------------------------||-------------------------------------------------||-----------------------------444-----------------||-6h7p6-4-----------6h7p6-4-------6666-7777-7-6-4-||---------4-4-4-4-4---------5---------------------||-----------4-4-4-4-------------------------------|
-------------------------------------------------| -------------------------------------------------| -----------------------------666-----------------| -6h7p6-4-----------6h7p6-4-------6666-7777-7-6-4-| ---------4-4-4-4-4---------5---------------------| -----------4-4-4-4-------------------------------|
-------------------------------------------------| -------------------------------------------------| -----------------------------444-----------------| -6h7p6-4-----------6h7p6-4-------6666-7777-7-6-4-| ---------4-4-4-4-4---------5---------------------| -----------4-4-4-4-------------------------------|
-----------------------------------------------| -----------------------------------------------| -----------------------------666---------------| -6h7p6-4-----------6h7p6-4-------6666-7777-999-| ---------4-4-4-4-4---------5-------------------| -----------4-4-4-4-----------------------------|
-----------------------------------------------| -----------------------------------------------| -6h7p6-4---------4h6p4-------------------------| ---------7-------------7-6---------------------| ---------------------------2------2-5555-444-4-| -----------0-0-0-------------0000------------4-|
|--------------------------------------------------||--------------------------------------------------||-----------------4----------------------------4---||---------------6---7---------3-7-6------3-4-6-----||-44-44---44-44-------4-44-44-------4-44---------4-||-44-44---44-44-------4-44-44--------------------4-|
-----------------------------------------| -----------------------------------------| -----------------------------------------| -----------------------------6s-9s-7s----| -44-44---44-44-4-4---44-44-4----------4--| -44-44---44-44-4-4---44-44-4----------4--|
|----------------------------------------------------||------------------7-5--------------3-7-5-3----------||--------------6-7-----7-6------------------6-4-2----||-44444444-4-7-------------33333333---------------6--||-55555555-----------------44444444------------------||----------------------------------------------------|
-----------------------------------| -----------------------------------| -----------------------------------| -4s-3s-7s-6s-7s-9s-11s-6s-9s-7s-6s-| -----------------------------------| -----------------------------------|
|-------------------------------------------------------------------||-------------------------------------------------------------------||-------------------------------------------------------------------||---------------------------------------------------7p0-6p0---------||-7p0-----7p0---------------------------7p0-5p0-------------5h7-7-7-||-----4-4-----4-0-0h4-4-4-4-4-4-4-4-4-4---------0-0-----------------|
-------------------------------------------------------------------| -------------------------------------------------------------------| -------------------------------------------------------------------| -------------------------------------------------------------------| -7p0-----7p0---------------------------7p0-5p0-----4p0-------------| -----4-4-----4-0-0h4-4-4-4-4-4-4-4-4-4---------0-0-----0-0-0-0-0-0-|
|------------------------------------------||------------------------------------------||-----------------4--------------------4---||-7-6-4---7-6-4-----6--7-6-4---7-6-4-----6-||-------4-------5------------4-------5-----||------------------------------------------|
|-------------------------------------------------||-------------------------------------------------||-------------------------------------------------||-------------------------------------------------||-444-4-444-4-444--444-4-444-444-444-4-444-4-444--||-444-4-444-4-444--444-4-444-444-444-4-444-4-444--|
---------------------------------------------------------------| ---------------------------------------------------------------| ---------------------------------------------------------------| ---------------------------------------------------------------| -444-444-444-4-444-4-444---444-444-444-4-444-4-444-4-444-4-444-| -444-444-444-4-444-4-444---444-444-444-4-444-4-444-4-444-4-444-|
-------------------------------------------------| -------------------------------------------------| -------------------------------------------------| -------------------------------------------------| -444-444-444-4-444-4-444-----*6^-444-4-444-4-444-| -444-444-444-4-444-4-444-4p0-----444-4-444-4-444-|
-----------------------------------------------| -----------------------------------------------| -----------------------------------------------| -----------------------------------------------| -444-4-444-444-444-4-444-4-444--444-4-----*6^--| -444-4-444-444-444-4-444-4-444--444-4-4p0------|
|----------------------------------------------------------------||----------------------------------------------------------------||----------------------------------------------------------------||----------------------------------------------------------------||-4----4---2h4------5---2---2h4------4---2h4--------9---7h9------||---44---4-----4-44---4---4-----4-44---4-----4-0-00---0-----0-00-|
-------------------------------------------| -------------------------------------------| -------------------------------------------| -------------------------------------------| ------------------9---7h9------------------| -000-0-0-000-0-00---0-----0-00-000-0-0-000-|
|------9------------------------------------||-7-10---7-7-9-10-9-7-6-7-9-7~--------------||-------------------------------7-6-------7-||-----------------------------------9-7-9---||-------------------------------------------||-------------------------------------------|
------9--------9-------------------9--------9-------------------| -7-10---7-7-10---7-7-9-10-9-7-7-10---7-7-10---7-7-9-10-12-9-10~-| ----------------------------------------------------------------| ----------------------------------------------------------------| ----------------------------------------------------------------| ----------------------------------------------------------------|
|--------------------------------------------||--------------------------------------------||----------------7s-11s-9s-11s-7s-11s-9s-11s-||-7s-6s-4s-6s-7s-----------------------------||--------------------------------------------||--------------------------------------------|
|-----------------------------------------------||-----------------------------------------------||-----------------------------------------------||-7s-6s-4s-6s-7s--------------------------------||-----------------------------------------------||----------------0s-12s-11s-12s-10s-12s-11s-12s-|
|----------------------------------------------------||----------------------------------------------------||----------------------------------------------------||-0s-3s-4s----7s-6s-4s-6s-7s-9s----------------------||----------2s-------------------0-0-0---0-00---0-0-0-||-------------------------------0-0-0---0-00---0-0-0-|
----------------------------------------------------------| ---------10------10------10------10-----------------------| ------------6-------6-------6-------6---------------------| -------------------------------0--------------------------| -0-00--9-------9-------7---------------0-0-0--0-00--0-0-0-| -0-00----------------------------------0-0-0--0-00--0-0-0-|
----------------------------------------------------------| ---------10------10------10------10-----------------------| ------------6-------6-------6-------6---------------------| -------------------------------0--------------------------| -0-00--9-------9-------7---------------0-0-0--0-00--0-0-0-| -0-00----------------------------------0-0-0--0-00--0-0-0-|
-----------------------------------------------------------| -----------------------------------------------------------| ----------------------------------6------6------6------6---| ------------------------------------9------9------9------9-| -0-00--0-0-0--0-00--0-0-0--0-00-8------8------8------8-----| -0-00--0-0-0--0-00--0-0-0--0-00----------------------------|
--------------------------------------------------------------| --------------------------------------------------------------| ---6------6------6------6-------------------------------------| -----9------9------9------9-----------------------------------| -8------8------8------8-----4-44-44-44-44-44-44-4-4-44-44-4-4-| ----------------------------4-44-44-44-44-44-44-4-4-44-44-4-4-|
-------------------------------------------------------------------| -------------------------------------------------------------------| -----------------------------------------------4-------------------| ---------------------------------------7-6-4-----6-----------------| -44-44--44-44--44-44--44-44-4-4--44-44-------4-----44-44-44-44-4-4-| -44-44--44-44--44-44--44-44-4-4--44-44-------------44-44-44-55-5-5-|
------------------------------------------------------------------| ------------------------------------------------------------------| ------------------------------------------------------------------| ------------------------------------------------------------------| -44-44-44-44-4-4-44-44-4-4--44-44--44-44--44-44--44-44-4-4--44-44-| -55-55-55-55-5-5-55-55-5-4--44-44--44-44--44-44--44-44-4-4--55-55-|
Please rate this tab:
x1.0