Within The Ruins – Invade tab ver. 2

Alright, so Invade is already tabbed, but I decided to fix a couple problems I 
heard and also add the second guitar which no one seemed to have. This is as 
accurate as you can get. If anything's wrong, feel free to leave a comment, and 
I'll see to it ASAP.

Song:Invade
Artist: Within The Ruins
Album: Invade
Tuning: G# D# G# C# F A#


|--------------------------------------------------------------------||--------------------------------------------------------------------||--------------------------------------------------------------------||--------------------------------------------------------------------||----9---------4-----------4----------9---------4-----------4--------||-4/---7-6-0-3---3---3-0-3---6-3-4-4/---7-6-0-3---3---3-0-3---6-3-4--|
| |
|--------------------------------------------------------------------||--------------------------------------------------------------------||--------------------------------------------------------------------||--------------------------------------------------------------------||--------------------------------------------------------------------||--------------------------------------------------------------------|
|x4|----------------------------------||----------------------------------||----------------------------------||----------------------------------||----9---------4-----------4-------||-4/---7-6-0-3---3---3-0-3---6-3-4-|| . . . . . . . . . . . .
|
|----------------------------------||----------------------------------||----------------------------------||----------------------------------||----9---------4-----------4-------||-4/---7-6-0-3---3---3-0-3---6-3-4-| . . . . . . . . . . . .
|x4|----------------------------------||----------------------------------||----------------------------------||----------------------------------||----9---------4-----------4-------||-4/---7-6-0-3---3---3-0-3---6-3-4-|| . . . . . . . . . . . .
|
|----------------------------------||----------------------------------||----------------------------------||----7---------3-----------3-------||----------------------------------||-4/---7-6-0-3---3---3-0-3---6-3-4-| . . . . . . . . . . . .
|-|x2| |----------------------------------------------9-7-9-----|| |-/7---7-/10-9-10-/14~--/10-9-----------9-7-9--------9~--|| |----6------------------------11-10\6~-------------------|| |--------------------------------------------------------|| |--------------------------------------------------------|| |--------------------------------------------------------|
| || || |--------------------------------------------------------------|| |-/10----10-/14-12-14-/19~--/14-12----------9-7-9--10-9-10-7~--|| |-----11---------------------------14-13-----------------------|| |----------------------------------------15~-------------------|| |--------------------------------------------------------------|| |--------------------------------------------------------------|
| |
| |---------------------------------------------------------|| |-/7---7-/10-9-10-/14~--/10-9-----------9-7-9--10-9-10-6~-|| |----6------------------------11-10-6~--------------------|| |---------------------------------------------------------|| |---------------------------------------------------------|| |---------------------------------------------------------|
| || || |---------------------------------------------7-5-7--9-7--------|| |-/10----10-/14-12-14-/19~--/14-12-----------------------10-9~--|| |-----11---------------------------14-13------------------------|| |----------------------------------------15~--------------------|| |---------------------------------------------------------------||-|---------------------------------------------------------------|
|-------------------------------------------------------------------||-------------------------------------------------------------------||-------------------------------------------------------------------||-/11-------/9----------/11-----9-------/11---------9---------------||-----12-9-----11-8---------12----11-8------12-9------11-8----8-11~-||-------------------11---------------------------11--------11-------|
| |
|-----------------------------------------------------------------------------||-----------------------------------------------------------------------------||-----------------------------------------------------------------------------||-/14--------/12-----------/14-----12--------/14----------12------------------||-----16-12------14-11---------16-----14-11------16-12-------14-11----11-14~--||----------------------15------------------------------15----------15---------|
|-----------------------------------------------------------||-----------------------------------------------------------||-----------------------------------------------------------||------------------/11------9-------------------------------||-4444444-444444-------12-9---11-8\-444-444-444444-----8-11-||-4444444-444444--------------------444-444-444444--11------|| ....... ...... ... ... ......
|
|------------------------------------------------------------||------------------------------------------------------------||------------------------------------------------------------||-----------------/14-------12-------------------------------||-4444444-444444------16-12----14-11\-444-444-444444----4-8--||-4444444-444444----------------------444-444-444444--7------| ....... ...... ... ... ......
|----------------------------------------------------------||-14-14-14-14-10-10-10-10----------------------------------||----------------------------------------------------------||-----------------------------------------/11------9-------||-------------------------4444444-444444------12-9---11-8\-||-------------------------4444444-444444-------------------|| ....... ......
|
|--------------------------------------------------------------||--------------------------------------------------------------||-14-14-14-14-11-11-11-11--------------------------------------||-----------------------------------------/14-------12---------||-------------------------4444444-444444------16-12----14-11\--||-------------------------4444444-444444-----------------------| ....... ......
|-------------------------------------------------||-------------------------14-14-14-14-14-14-14-14-||-------------------------------------------------||-------------------------------------------------||-444-444-444444-----8-11-------------------------||-444-444-444444--11------------------------------|| ... ... ......
|
|------------------------------------------------||------------------------------------------------||-----------------------14-14-14-14-14-14-14-14--||------------------------------------------------||-444-444-444444----4-8--------------------------||-444-444-444444--7------------------------------| ... ... ......
|--------------------------------------------------------------------------------||-14tr-10tr-12tr------------------------------------------------------------10tr-||----------------11tr-10tr-11tr-13tr-------------------------10tr-11tr-13tr------||------------------------------------11tr-9tr-11tr-12tr-14tr---------------------||--------------------------------------------------------------------------------||--------------------------------------------------------------------------------|
| |
|---------------------------------------------------------------------------------||-------------------------------12tr------------------------------------12tr-14tr-||-14tr-11tr-13tr------13tr-14tr-------------------------------13tr-14tr-----------||----------------11tr----------------15tr----------------11tr---------------------||-----------------------------------------11tr-12tr-14tr--------------------------||---------------------------------------------------------------------------------|
|---------------------------------------------------------------------------------||-14tr-10tr-12tr------------------------------------------------------------------||----------------11tr-10tr-11tr-13tr-------------------------10tr-11tr-13tr-------||------------------------------------11tr-9tr-11tr-12tr-14tr----------------------||---------------------------------------------------------------------------44444-||---------------------------------------------------------------------------44444-|| .....
|
|----------------------------------------------------------------------------------||-------------------------------12tr------------------------------------12tr-------||-14tr-11tr-13tr------13tr-14tr-------------------------------13tr-14tr------------||----------------11tr----------------15tr----------------11tr----------------------||-----------------------------------------11tr-12tr-14tr---------------------44444-||----------------------------------------------------------------------------44444-| .....
|----------------------------------------------------------------------------||----------------------------------------------------------------------------||----------------------------------------------------------------------------||------------------------------------------------11-9h11p9-------------------||-3-4-6----9--------4--------4-------------4---------------12-11-8-9-11-12*~-||-3-4-6-/7---776-6---0-3-0-6---3---3-0-3-6---330-----------------------------|| . . . ... . . . . . . . . . . ...
|
|----------------------------------------------------------------------------||----------------------------------------------------------------------------||----------------------------------------------------------------------------||----------------------------------------------------------------------------||-3-4-6----9--------4---------4-------------4----12-11h12p11-9-8-------8-9*~-||-3-4-6-/7---776-6---0-3-0-6---3---3-0-3-6---330-----------------11-12-------| . . . ... . . . . . . . . . . ...
|-----------------------------------------------------------------------||-----------------------------------------------------------------------| Both|-----------------------------------------------------------------------|Guitars|-----------------------------------------------------------------------||-3-4-6----9--------4--------4-------------4----------------------------||-3-4-6-/7---776-6---0-3-0-6---3---3-0-3-6---330-11-9h11p9-7-6-7-4-3-4~-| . . . ... . . . . . . . . . . ...
|----------------------------------------------------------------------------||----------------------------------------------------------------------------||----------------------------------------------------------------------------||------------------------------------------------11-9h11p9-------------------||-3-4-6----9--------4--------4-------------4---------------12-11-8-9-11-*12~-||-3-4-6-/7---7-6-6---0-3-0-6---3---3-0-3-6---3-0-----------------------------|| . . . . . . . . . . . . . . . . .
|
|---------------------------------------------------------------------------------||---------------------------------------------------------------------------------||---------------------------------------------------------------------------------||---------------------------------------------------------------------------------||-3-4-6-----12--------7---------7--------------7------12-11h12p11-9-8-------8-9*~-||-3-4-6-/12----11-9-7---0-6-0-6---6---7-0-6-10---10-6-----------------11-12-------| . . . . . . . . . . . . . . . . .
|--------9p5-------||------------7---7-||--------------6---||------------------||-4444-------------||-4444-------------|| ....
|
|--------14p9-----------||-------------10----10--||----------------11-----||-----------------------||-4444------------------||-4444------------------| ....
|-9p5--------9p5--------9p5--------9p5--------9p5-------||-----7---7------7---7------7---7------7---7------7---7-||-------6----------6----------6----------6----------6---||-------------------------------------------------------||-------------------------------------------------------||-------------------------------------------------------|
| |
|-14p9-----------14p9-----------14p9-----------14p9-----------14p9-----------||------10----10-------10----10-------10----10-------10----10-------10----10--||---------11-------------11-------------11-------------11-------------11-----||----------------------------------------------------------------------------||----------------------------------------------------------------------------||----------------------------------------------------------------------------|
|--------------------------------------------------------------||-7p6-----9--7p6-----9--7p6-----9--7p6-----9--7p6-----6h7h9/10-||-----7p6--------7p6--------7p6--------7p6--------7p6----------||--------------------------------------------------------------||--------------------------------------------------------------||--------------------------------------------------------------|
| |
|--------------------------------------------------------------------------------9-||-10p9-------12--10p9-------12--10p9-------12--10p9-------12--10p9-------9h10h12---||------11p10----------11p10----------11p10----------11p10----------11p10-----------||----------------------------------------------------------------------------------||----------------------------------------------------------------------------------||----------------------------------------------------------------------------------|
|--------------------------------------------------------------||--------7---9--------7---9--------7---9--------7---9--------7-||-6h7h10-------6h7h10-------6h7h10-------6h7h10-------6h7h10---||--------------------------------------------------------------||--------------------------------------------------------------||--------------------------------------------------------------|
| |
|-----------------------------------------------------------------------------||----------10--12----------10--12----------10--12----------10--12----------10-||-10h11h13--------10h11h13--------10h11h13--------10h11h13--------10h11h13----||-----------------------------------------------------------------------------||-----------------------------------------------------------------------------||-----------------------------------------------------------------------------|
|-------5-9---------5-9---------5-9---------5-9---------5-9----------||-7---7-------7---7-------7---7-------7---7-------7---7-----6-7-9-10-||---6-----------6-----------6-----------6-----------6----------------||--------------------------------------------------------------------||--------------------------------------------------------------------||--------------------------------------------------------------------|
| |
|----------9h14-----------9h14----------9h14-----------9h14---------12-||-10----10-------10----10------10----10-------10----10------9h10h12----||----11-------------11------------11-------------11--------------------||----------------------------------------------------------------------||----------------------------------------------------------------------||----------------------------------------------------------------------|
|--------------------------------------------7-9h10p9p7h9h10h14--||-7-7-10-10-9-9-7---10-10-9-9-6-6-9---7-9-10---------------------||----------------------------------------------------------------||----------------------------------------------------------------||----------------------------------------------------------------||----------------------------------------------------------------|| . . . . . . . . . . . . . .
|
|---------------------------------------------------9-10------------------9-||-10-10-14-14-12-12-10---14-14-12-12-9-9-12---10-12------10h12p10p9h10h12---||---------------------------------------------------------------------------||---------------------------------------------------------------------------||---------------------------------------------------------------------------||---------------------------------------------------------------------------| . . . . . . . . . . . . . .
|-------------------------------------------------------||-------------------------------------------------------| Both|-------------------------------------------------------|Guitars|-------------------------------------------------------||-5555555--555-555-5-5--5-5--5555555--6-5--8--8-8--8-8--||-5555555--555-666-6-6--6-6--5555555--7-6--9--9-9--9-9--| ....... ... ... . . . . ....... . . . . . . .
|------------------------------------------------------------------------||------------------------------------------------------------------------| Both|------------------------------------------------------------------------|Guitars|------------------------------|3||3||3|---------------------------------||-5555554--8888-8888-8-8--8-8--5555555554--6-5--8--8-8--8-8--8--8-8--8-8-||-5555554--8888-8888-9-9--9-9--5555555554--7-6--9--9-9--9-9--9--9-9--9-9-| ....... .... .... . . . . .......... . . . . . . . . . . . .
|----------------------------------------------------||----------------------------------------------------||----------------------------------------------------||----------------------------------------------------||-2-2222-2---3-3-3-3---2-2222-2---3-3-3-3------------||-3-3333-3---4-4-4-4---3-3333-3---4-4-4-4------------|| . .... . . . . . . .... . . . . .
|
|----------------------------------------------------||----------------------------------------------------||----------------------------------------------------||----------------------------------------------------||-2-2222-2---3-3-3-3---2-2222-2---3-3-3-3------------||-3-3333-3---4-4-4-4---3-3333-3---4-4-4-4---5^-8^-5^-| . .... . . . . . . .... . . . . .
|-----------------------------------------------------------------||-----------------------------------------------------------------| Both|-----------------------------------------------------------------|Guitars|----------------------------------------------2---2---2---2---2--||-2---11111---1---1---1---1-1-1-1--2---1---1---1---1---1---1---1--||-3---22222---2---2---2---2-2-2-2--3---2---2---2---2---2---2---2--| . ..... . . . . . . . . . . . . . . .
|-----------------------||-----------------------||-11\-------------------||--9\---9-9-9-9-9-9-9-9-||-----------------------||-----------------------|
| |
|-----------------------||-----------------------||-11\---7-7-7-7-7-7-7-7-||--9\-------------------||-----------------------||-----------------------|
|x2|-----------------9------------||-7tr---7-/10-9-7---7-6-7-6-7~-||-----6------------------------||------------------------------||------------------------------||------------------------------|
| |
|-----------------------/14-------------------||-10tr----10-/14------------------------------||------11---------14-13------14-13-14-13-14~--||---------------------------------------------||---------------------------------------------||---------------------------------------------|
|---------------------------------------------------------------------------------||---------------------------------------------------------------------------------||---------------------------------------------------------------------------------||-----------------------------------------16tr------------------------------------||-14tr------14tr-16tr-17tr-14tr-16tr-17tr------17tr-16tr-14tr-13tr-14tr-16tr-17tr-||------16tr-----------------------------------------------------------------------|
| |
|---------------------------------------------------------------------------------||---------------------------------------------------------------------------------||-----------------------------------------14tr-------------------------------11tr-||-12tr------12tr-14tr-16tr-12tr-14tr-16tr------16tr-14tr-12tr-11tr-12tr-14tr------||------14tr-----------------------------------------------------------------------||---------------------------------------------------------------------------------|
|---------------------------------------------------------------------------------||-----------------------------------------19tr------------------------------------||-16tr------16tr-18tr-19tr-16tr-18tr-19tr------19tr-18tr-16tr-15tr-16tr-18tr-19tr-||------16tr-----------------------------------------------------------------------||---------------------------------------------------------------------------------||---------------------------------------------------------------------------------|
| |
|-----------------------------------------19tr-------------------------------14tr-||-15tr------15tr-17tr-19tr-15tr-17tr-19tr------19tr-17tr-15tr-14tr-15tr-17tr------||------16tr-----------------------------------------------------------------------||---------------------------------------------------------------------------------||---------------------------------------------------------------------------------||---------------------------------------------------------------------------------|
|-----------------------------9-9-9-9---------------------------------||---------------------11----------------------------------------------||---------------------------------------------------------------------||-----11-11-11-11-8--------8--------------9-9-9-9-----8---------------||-------------------------------------------------------------9-9-9-9-||-8-----------------------------------5-----------4-------4-----------|| . . . .
|
|-----------------9-------14-14-14-14---------------------------------||-----------------------------------------------------7---------------||-----6-6-6-6-6-------6-------------------7-7-7-7---------------------||-------------------------------------------------------------8-8-8-8-||---------------------------------------------------------------------||-8-----------------------------------5-----------4-------4-----------| . . . .
|--------------------------------------------------------||--------------------------------------------------------||----------------------------------------------11--------||-9tr-----9tr-11tr-12tr-9tr-11tr-12tr-8---8-11----11-8---||---------------------------------------9--------------9-||-----9tr------------------------------------------------|
| |
|---------------------------------------------------9--------||-----------------------------------------------11-----------||-7tr-----7tr-9tr-11tr7tr-9tr-11tr----------11---------------||-----9tr--------------------------8-----8-------------11--8-||-------------------------------------9----------------------||------------------------------------------------------------|
|-------------------------------------------------------||-------------------------------------------------------||-------------------------------------------------------||------9-9-9-9----------------------8-8-8-8-------------||-10-----------10---------------9-----------9---7-------||-------------------12-12^--8^--------------------11-8^-|| .
|
|--------------------------------------------------------------||--------------------------------------------------------------||--------------------------------------------------------------||-9---12-12-12-12-9----------------8---11-11-11-11-8-----------||--------------------------------------------------------------||---------------------88^----4--5----------------------8^---4^-| .
|--------------------------------------------------------------------------||-----------------------12------------------------12-----------------------||---------11---11h12p11-------------11---11h12p11--------------------------||-----/12-----------------------/12----------------------11-------9---8888-||--------------------------------------------------------------------------||-9--------------------------9-------------------------8^-------5^--4------|
| |
|-----------------19----------7---6h7p6-10--------------------||-----/15-19---19----------/7---------------------------------||----------------------------------------------9-----7---6666-||-------------------------------------------------------------||-------------------------------------------------------------||-9--------------------9---------------------9-----5^--4------|
|----------------------------14-15-14-15-19---18---18h19p18-22-20-19-18-19-||-----------------------12-------------------------------------------------||---------11---11h12p11----------------------------------------------------||-----/12------------------------------------------------------------------||--------------------------------------------------------------------------||-9------------------------------------------------------------------------|
| |
|--------7---7---6h7p6-10---------------15---14---14h15p14-19-17-15-14-15-||-----/7--------------------14-15-14-15-----------------------------------||-------------------------------------------------------------------------||-------------------------------------------------------------------------||-------------------------------------------------------------------------||-9-----------------------------------------------------------------------|
|------------------------------------------||-----------------------12-----------------||---------11---11h12p11------------------7-||-----/12----------------------------------||----------------------------------------5-||-9--------------------------9^--8^--4^----|
| |
|--------7---6h7p6-10------------------||-----/7-------------------------------||-----------------------------------11-||--------------------------------------||-----------------------5^--4^------9--||-9-----------------------------8^-----|
|----------------------------14-15-14-15-19---18---18h19p18-22-20-19-18-19-||-----------------------12-------------------------------------------------||---------11---11h12p11----------------------------------------------------||-----/12------------------------------------------------------------------||--------------------------------------------------------------------------||-9------------------------------------------------------------------------|
| |
|--------7---6h7p6-10----------------15---14---14h15p14-19-17-15-14-15--||-----/7-----------------14-15-14-15------------------------------------||-----------------------------------------------------------------------||-----------------------------------------------------------------------||-----------------------------------------------------------------------||-9---------------------------------------------------------------------|
|-7--------------------------------------------------------------||---7------------------------------------------------------------||-----7-7h9-7-6-6h7-6-7-\3~--/12-11-12-/16-15-16-16^18^16-15-15~-||----------------------------------------------------------------||----------------------------------------------------------------||----------------------------------------------------------------|
| |
|-10-7-----------------------------------------------------------||------7-7h8-7-5-5h7-5-3-2~--/12-11-12-/15-14-15-15^17^15-14-14~-||----------------------------------------------------------------||----------------------------------------------------------------||----------------------------------------------------------------||----------------------------------------------------------------|
|-----19--------------------------------------------------------------------||-----------19-20-17-19-----------------------------------------------------||-/16----16--------------------------------------/12~--11-/16--15--16--18tr-||---------------------------------------------------------------------------||---------------------------------------------------------------------------||---------------------------------------------------------------------------|
| |
|----------------------------15----14-15-12-14------------------------------||------------------------------------------------/12~--11-/15--14--15--17tr-||-------------------------12----12------------------------------------------||---------------------------------------------------------------------------||---------------------------------------------------------------------------||---------------------------------------------------------------------------|
|-----------------------------------------------------------------||-----------------------------------------------------------------||-----------------------------------------------------------------||-----------------------------------------------------------------||-99998-------99998-------99998---99998-------99998-------99998---||-------5-4---------5-4---------5-------5-4---------5-4---------5-|
| |
|-----------------------------------------------------------------||-----------------------------------------------------------------||-11~-------------------------------------------------------------||-11~-------------------------------------------------------------||-9~------------------------------5-------------------------------||---------------------------------5-------------------------------|
|-----------------------------------------------------------------||-----------------------------------------------------------------||-----------------------------------------------------------------||-----------------------------------------------------------------||-99998-------99998-------99998---99998-------99998-------99998---||-------5-4---------5-4---------5-------5-4---------5-4---------5-|
| |
|-----------------------------------------------------------------||-----------------------------------------------------------------||-----------------------------------------------------------------||-77776-------77776-------77776---77776-------77776-------77776---||-----------------------------------------------------------------||-------5-4---------5-4---------5-------5-4---------5-4---------5-|
|x2|------------------------------------------------------------------||--------------------------------------------------------------777-||------------------------------------------------------------------||----------------------------------------------7--6----10~---------||-99998-----998-------99998------9--8----------------8-------------||-------5-4-----5-4^--------4^---------5^-4^-----------------4-----|
| |
|---------------------------------------------------------------555-||-------------------------------------------------------------------||--------------------------------------------------------8~---------||-77776-----776-------77776------7--6----------10--9----------------||-----------------------------------------------------11------------||-------8-7-----8-7^--------7^---------8^-7^------------------4-----|
|-----------||-----------| Both|-----------|Guitars|-----------||-4444-4444-||-4444-4444-| .... ....
|x2|-----------------------------------------||-----------------------------------------| Both|-----------------------------------------|Guitars|-----------------------------------------||-3333333-3-3-3--3333333--3--3--3333333-3-||-3333333-3-3-3--3333333--4--4--3333333-3-| ....... . . . ....... . . ....... .
|------------------------------------------------------------------------||--------------11^---------------11^---------------11^---------------11^-||-------11----------------11----------------11----------------11---------||-----------8-----------------8-----------------8-----------------8------||-99999-------------99999-------------99999-------------99999------------||------------------------------------------------------------------------|
| |
|---------------9^----------------9^----------------9^-----------------9^---||-------11----------------11----------------11-----------------11-----------||-----------11----------------11----------------11-----------------11-------||-88888-------------88888-------------88888--------------88888--------------||---------------------------------------------------------------------------||---------------------------------------------------------------------------|
|-----------------------------------------------------------------------||-----------------------------------------------------------------------| Both|-----------------------------------------------------------------------|Guitars|-----------------------------------------------------------------------||-333333-------333333-3--3--333333-3-333333-3-3-3-333333-3--3--333333-3-||-333333-------333333-4--4--333333-3-333333-3-3-3-333333-4--4--333333-3-| ...... ...... . . ...... . ...... . . . ...... . . ...... .
|--------------------------------------------------------------------||-------6---9-----------------------------6---9----------------------||--------------------------------------------------------------------||-------3---6-----------------------------3---6----------------------||-333333--------3333334-6-7---------333333--------3333334-6-7--------||-333333--------3333334-6-7-3-4-7---333333--------3333334-6-7-3-4-7\-|| ...... ....... . . ...... ....... . .
|
|-------4---8------------------------------4---8-----------------------||----------------------------------------------------------------------||-------1---5------------------------------1---5-----------------------||----------------------------------------------------------------------||-333333--------3333334-6-7----------333333--------3333334-6-7---------||-333333--------3333334-6-7-6-7-10---333333--------3333334-6-7-6-7-10\-| ...... ....... . . ...... ....... . .
Please rate this tab:
x1.0