Woe Is Me – Mannequin Religion tab

-------------------------------------------------------------------------------
			     MANNEQUIN RELIGION – Woe, Is Me
-------------------------------------------------------------------------------

http://www.myspace.com/woeisme

|-------------------------||-------------------------||-------------------------||-------------------------||-5---540-5---540----5-0--| 2x|--7-5-----7-5----5-7-----|
|------------------3+--------------------------------||------------------3+--------------------------------||------------------3+--------------------------------||------------------3+---------------------0~-------0-||-0-0-0-0000-0-0-0-----0-0-0-0000-0-0-0---0~-------0-||-1-1-1-1111-1-1-1-----0-0-0-0000-0-0-0---0~-------0-|
. . . .... . . . . . . .... . . .|-----------------------------------||-----------------------------------||-----------------------------------||-0---------------8-------10--------||-0---------------8-------10--------|2x|-0---------------8-------10--------|
|------------------------------------------------------------||------------------------------------------------------------||------------------------------------------------------------||------------------------------------------------------------||-00000000000000003333333333333333---------8888888888888888--||-000000000000000033333333333333335-5-5-5-58888888888888888--|
............... ............... ................|------------------------------------------------------------||------------------------------------------------------------||------------------------------------------------------------||------------------------------------------------------------||-00000000000000003333333333333333---------------------------||-000000000000000033333333333333335-5-5-5-50-00-00-0-00-00---|
............... ...............|---------------------------------------------------------------------------||---------------------------------------------------------------------------||---------------------------------------------------------------------------||---------------------------------------------------------------------------||-----------------0-00-0-00------------------0-00--0000-000-000-004---------||-0-00-00-0-00-00-0-00-0-00--0-00-00-0-00-00-0-00--0000-000-000-00-1-0------|
. .. . .. . .. .... ... ... .. |-------------------------------------------||-------------------------------------------||-------------------------------------------||-------------------------------------------||-0000-000-000-00--0000-0000-0-0000-0000-0--||-0000-000-000-00--1111-1111-1-1111-1111-1--|
.... ... ... .. .... .... . .... .... .|-------------------------------------------||-------------------------------------------||-tp7---------------------------------------||-----------tp5-------tp8-------------------||-------------------------------tp6---tp5---||-------------------------------------------|
|---------------------------------------------------------------------------||---------------------------------------------------------------------------||---------------------------------------------------------------------------||---------------------------------------------------------------------------||---------------------------------------------------------------------------||-800-00-800-00-00-00-0-00-00-800-00-800-00-00-00-0-00-00-0-00-00-0---------|
|-----------------------------||-----------------------------||-----------------------------||-----------------------------||-00-00-0000-0-00-00-000-000--|4x|-00-00-0000-0-00-00-000-000--|
.. .. .... . .. .. ... ...|--------------------------------|---------------------------------||--------------------------------|---------------------------------||--------------------------------|---------------------------------||--------------------------------|---------------------------------||---------------------------(2x)-|--------------------000-000-(2x)-||-11-11-1111-1-11-11-111-111-----|-00-00-0000-0-00-00-000-000------|
************************************ | ~ vibrato | + harmonic | . Mute note ************************************ Rate/comment please
Please rate this tab:
x1.0